Bienvenidos a la Comunidad de Guitarristas Taringueros!, la Comunidad de Música más grande de todo Taringa! Este grupo dedicado exclusivamente para el instrumento más hermoso de la historia: la guitarra.

Ver más
  • 35,778 Miembros
  • 22,013 Temas
  • 11,580 Seguidores
  • 3

Punteos faciles para guitarra acustica

Hola, empece con la guitarra hace 3 meses y me uni a la comunidad hoy

El tema lo cree para que pongan punteos para guitarra acustica

Empiezo yo con el punteo de un tema que vine practicando hace poco:

Nombre: Mil horas - Los abuelos de la nada

1)--------------------------------------------------------------------------
2)--------------------------------------------------------------------------
3)--------------------------------------------------------------------------
4)--------------------------------------------------------------------------
5)--------------------------------------------- 0 0 ----------------------
6)------ 0 2 3 3 2 0 - 0 2 3 3 2 - 2 3 .... 3 - 0 2 3 3 0----

Para los que no sepan leerlo:

El 0 es cuerda al aire, y los numeros por ejemplo el 3 es tocar en el traste 3.


link: http://www.videos-star.com/watch.php?video=YVOIukK-y9o

Minuto 1:20

Saludos y pongan mas
  • 3
  • 7Calificación
  • 16Seguidores
  • 255.572Visitas
  • 24Favoritos

42 comentarios

@destronadords Hace más de 4 años
yo tambien toco guitarra
como hace 5 meses
tengo algunos punteos si queres te los paso despues
@chapaxriver Hace más de 4 años
Me prendo en el pedido, lamentablemente no tengo pa aportar, un garrón
@juansumo Hace más de 4 años
yo tambien me prendo al pedidio y agrrego
sastifaction-los rolings stones
1)--------------------------------------------------------------------------
2)--------------------------------------------------------------------------
3)--------------------------------------------------------------------------
4)--------------------------------------------------------------------------
5)----------2--2---2-3-4---5-5-5--4-4-4-------------------------------
6)-------------------------------------------------------------------------
@0Lionel0 Hace más de 4 años
En la pagina lacuerda.net hay varios aunque todos en castellano, ahi pueden buscar el que mas les guste.
Saludos
@lauta91 Hace más de 4 años

juansumo dijo:yo tambien me prendo al pedidio y agrrego
sastifaction-los rolings stones
1)--------------------------------------------------------------------------
2)--------------------------------------------------------------------------
3)--------------------------------------------------------------------------
4)--------------------------------------------------------------------------
5)----------2--2---2-3-4---5-5-5--4-4-4-------------------------------
6)-------------------------------------------------------------------------



Eso no es un punteo es un riff.. :S ....
@joaquinbiasella Hace más de 4 años

lauta91 dijo:

juansumo dijo:yo tambien me prendo al pedidio y agrrego
sastifaction-los rolings stones
1)--------------------------------------------------------------------------
2)--------------------------------------------------------------------------
3)--------------------------------------------------------------------------
4)--------------------------------------------------------------------------
5)----------2--2---2-3-4---5-5-5--4-4-4-------------------------------
6)-------------------------------------------------------------------------



Eso no es un punteo es un riff.. :S ....


y esta mal ensima

es

1)--------------------------------------------------------------------------
2)--------------------------------------------------------------------------
3)--------------------------------------------------------------------------
4)--------------------------------------------------------------------------
5)----------2--2---2-4-5---5-5-5--4-4-4-------------------------------
6)-------------------------------------------------------------------------

saludos!!

te dejo uno

el del padrino (muy comico para los amigos)

1)------0----3--2--0--3--0--2--0-------------------0--3--2--0--3--0--2--0---------------
2)--0--------------------------------1--3--0------0----------------------------0------------
3)---------------------------------------------------------------------------------------3--2
4)--------------------------------------------------------------------------------------------
5)--------------------------------------------------------------------------------------------
6)--------------------------------------------------------------------------------------------

y dejo ahi porq no me da mas para el mensaje xD

saludos
@tute_14_73 Hace más de 4 años
el solo de la intro de wish you were here de pink flod es facil tmb....
ahora toy en lo de mi novia y me da paja poner la tab.. cuando lelgo a casa la copio
@pergoh Hace más de 4 años
che una pregunta: alguien me podria explicar detalladamente cual es la diferencia entre un punteo y un riff? soy realmente pesimo en teoria musical
@Manchester Hace más de 4 años

pergoh dijo:che una pregunta: alguien me podria explicar detalladamente cual es la diferencia entre un punteo y un riff? soy realmente pesimo en teoria musical



Un punteo es una serie de notas tocadas individualmente y un riff es un conjunto de notas formando varios acordes para asi crear una "base"
@destronadords Hace más de 4 años

joaquinbiasella dijo:

lauta91 dijo:

juansumo dijo:yo tambien me prendo al pedidio y agrrego
sastifaction-los rolings stones

1)--------------------------------------------------------------------------
2)--------------------------------------------------------------------------
3)--------------------------------------------------------------------------
4)--------------------------------------------------------------------------
5)----------2--2---2-3-4---5-5-5--4-4-4-------------------------------
6)-------------------------------------------------------------------------



Eso no es un punteo es un riff.. :S ....


y esta mal ensima

es

1)--------------------------------------------------------------------------
2)--------------------------------------------------------------------------
3)--------------------------------------------------------------------------
4)--------------------------------------------------------------------------
5)----------2--2---2-4-5---5-5-5--4-4-4-------------------------------
6)-------------------------------------------------------------------------

saludos!!

te dejo uno

el del padrino (muy comico para los amigos)

1)------0----3--2--0--3--0--2--0-------------------0--3--2--0--3--0--2--0---------------
2)--0--------------------------------1--3--0------0----------------------------0------------
3)---------------------------------------------------------------------------------------3--2
4)--------------------------------------------------------------------------------------------
5)--------------------------------------------------------------------------------------------
6)--------------------------------------------------------------------------------------------

y dejo ahi porq no me da mas para el mensaje xD

saludos



mi punteo no esta mal el tullo esta mal
@joaquinbiasella Hace más de 4 años

destronadords dijo:

joaquinbiasella dijo:

lauta91 dijo:

juansumo dijo:yo tambien me prendo al pedidio y agrrego
sastifaction-los rolings stones

1)--------------------------------------------------------------------------
2)--------------------------------------------------------------------------
3)--------------------------------------------------------------------------
4)--------------------------------------------------------------------------
5)----------2--2---2-3-4---5-5-5--4-4-4-------------------------------
6)-------------------------------------------------------------------------



Eso no es un punteo es un riff.. :S ....


y esta mal ensima

es

1)--------------------------------------------------------------------------
2)--------------------------------------------------------------------------
3)--------------------------------------------------------------------------
4)--------------------------------------------------------------------------
5)----------2--2---2-4-5---5-5-5--4-4-4-------------------------------
6)-------------------------------------------------------------------------

saludos!!

te dejo uno

el del padrino (muy comico para los amigos)

1)------0----3--2--0--3--0--2--0-------------------0--3--2--0--3--0--2--0---------------
2)--0--------------------------------1--3--0------0----------------------------0------------
3)---------------------------------------------------------------------------------------3--2
4)--------------------------------------------------------------------------------------------
5)--------------------------------------------------------------------------------------------
6)--------------------------------------------------------------------------------------------

y dejo ahi porq no me da mas para el mensaje xD

saludos



mi punteo no esta mal el tullo esta mal


toca el mio y decime entonces
@tute_14_73 Hace más de 4 años
la intro que hace gilmour en "wish you were here":
----------------------------------------------------------------------------|
------------3------5-------3------------------------------------------------|
---2 / 4---------------4----------4p 2p 0 ----------------------------------|
-------------------------------------------0---------------0-0--------------|
--------------------------------------------------------/2------------------|
----------------------------------------------------------------------------|


--3 / 5-----5 / 3-----------------------------------------------------------|
--3 / 5-----5 / 3-------3 / 5-----5 / 3------------3 / 5-----5 / 3----------|
------------------------2 / 4-----4 / 2 p 0--------2 / 4-----4 / 2 p 0---0--|
----------------------------------------------------------------------------|
----------------------------------------------------------------------------|
----------------------------------------------------------------------------|


---------------------------(------------------------------------------------|
-------------3---5----------5p3-----3---------)---3--5------)---------------|
---2 / 4-------4------------------4---2------4-------------4---2------------|
----------------------------------------------------------------------------|
----------------------------------------------------------------------------|
----------------------------------------------------------------------------|


----------------------------)--(--------------------------------------------|
---------------3---5-------5----5---3---5------------)--(-------------------|
----2 / 4------4---------------------------2------4----(4)----2-----------|
----------------------------------------------------------------------------|
----------------------------------------------------------------------------|
----------------------------------------------------------------------------|
@NicoFender Hace más de 4 años

destronadords dijo:

joaquinbiasella dijo:

lauta91 dijo:

juansumo dijo:yo tambien me prendo al pedidio y agrrego
sastifaction-los rolings stones

1)--------------------------------------------------------------------------
2)--------------------------------------------------------------------------
3)--------------------------------------------------------------------------
4)--------------------------------------------------------------------------
5)----------2--2---2-3-4---5-5-5--4-4-4-------------------------------
6)-------------------------------------------------------------------------



Eso no es un punteo es un riff.. :S ....


y esta mal ensima

es

1)--------------------------------------------------------------------------
2)--------------------------------------------------------------------------
3)--------------------------------------------------------------------------
4)--------------------------------------------------------------------------
5)----------2--2---2-4-5---5-5-5--4-4-4-------------------------------
6)-------------------------------------------------------------------------

saludos!!

te dejo uno

el del padrino (muy comico para los amigos)

1)------0----3--2--0--3--0--2--0-------------------0--3--2--0--3--0--2--0---------------
2)--0--------------------------------1--3--0------0----------------------------0------------
3)---------------------------------------------------------------------------------------3--2
4)--------------------------------------------------------------------------------------------
5)--------------------------------------------------------------------------------------------
6)--------------------------------------------------------------------------------------------

y dejo ahi porq no me da mas para el mensaje xD

saludos



mi punteo no esta mal el tullo esta mal



Toco hace cinco años y el punteo que esta bien es el segundo man.. y no esta bien del todo pero zafa
@NicoFender Hace más de 4 años

destronadords dijo:

joaquinbiasella dijo:

lauta91 dijo:

juansumo dijo:yo tambien me prendo al pedidio y agrrego
sastifaction-los rolings stones

1)--------------------------------------------------------------------------
2)--------------------------------------------------------------------------
3)--------------------------------------------------------------------------
4)--------------------------------------------------------------------------
5)----------2--2---2-3-4---5-5-5--4-4-4-------------------------------
6)-------------------------------------------------------------------------



Eso no es un punteo es un riff.. :S ....


y esta mal ensima

es

1)--------------------------------------------------------------------------
2)--------------------------------------------------------------------------
3)--------------------------------------------------------------------------
4)--------------------------------------------------------------------------
5)----------2--2---2-4-5---5-5-5--4-4-4-------------------------------
6)-------------------------------------------------------------------------

saludos!!

te dejo uno

el del padrino (muy comico para los amigos)

1)------0----3--2--0--3--0--2--0-------------------0--3--2--0--3--0--2--0---------------
2)--0--------------------------------1--3--0------0----------------------------0------------
3)---------------------------------------------------------------------------------------3--2
4)--------------------------------------------------------------------------------------------
5)--------------------------------------------------------------------------------------------
6)--------------------------------------------------------------------------------------------

y dejo ahi porq no me da mas para el mensaje xD

saludos



mi punteo no esta mal el tullo esta mal



ah! "TUYO" se dice amigo.. que haces mejor?.. escribir o tocar la viola?? :S
estamos al horno con vos :O
@nn2 Hace más de 4 años

Manchester dijo:

pergoh dijo:che una pregunta: alguien me podria explicar detalladamente cual es la diferencia entre un punteo y un riff? soy realmente pesimo en teoria musical



Un punteo es una serie de notas tocadas individualmente y un riff es un conjunto de notas formando varios acordes para asi crear una "base"


no, son sinonimos, punteo y riff quieren decir lo mismo, es la frase o leitmotif de un tema, pueden ser acordes o no.
@gabrieltbo Hace más de 4 años
aca uno demaciado facil.
Master of Pupets de Metallica...
no mentira

es asi

e)----0--2--4--2--4--5--4--2--0--/--2--4--2--0--4--2

es la cancion "the almigthy jungle" es la que dice ouin maue ouin maue ouin maue ouin maue
@vi15to Hace más de 4 años
Aqui one de metallica
1)--------------------------------------------------------------------------
2)-------------------------------------------------------------------------
3)-------------------------------------------------------------------------
4)-----------4-----------0-----------------4------------0-----------------------
5)----2-----------2----------------------------------------------------
6)-----------------------------------3----------3-------------------------------- -
@matics_gnr Hace más de 4 años
1)------------------------------------------------------------------------
2)------------------------------------------------------------------------
3)------------------------------------------------------------------------
4)------------------------------------------------------------------------
5)--3-3--0-3-3-3-2-0-0--0-0-0--------0------------------------------------
6)-----3--------------3------3-1-1-1---3-3--------------------------------

1)-----------
2)-----------
3)-----------
4)-----------
5)---0-3-3---
6)-3---------

Esta partecita repetiela 3 mas y volve a empesar otra ves desde el principio
Titulo:: Stand by my
Cantante:: Ben E. King
@JUANSITO79 Hace más de 4 años
hace poco me uni pero les dejo la de lo simpsons, es re facil:
1)-----------12--14--17--15--12-------------------------------------------
2)-----13---------------------------13---------------------------------------
3)----------------------------------------14-11-11-11-12-11-11-11-12---
4)----------------------------------------------------------------------------
5)---------------------------------------------------------------------------
6)----------------------------------------------------------------------------
@Emalac Hace más de 4 años
bue, a mi parecer esta mal.


------------------------------------------------------------------------------------------------------------
-----------------------------------------------------------------------------------------------------------
------------------------------------------------------------------------------------------------------------
-----------------------------------------------------------------------------------------------------------
------------------------0--2--3--3--2---------0--0-------------------------------------------------------
---0--2--3--3--2--0--------------------2--3---------3--0--2--3--3--0----------------------------------

comprobalo ak:

http://www.youtube.com/watch?v=O2bloDrA8dc
@rakzoh_17 Hace más de 4 años

vi15to dijo:Aqui one de metallica
1)--------------------------------------------------------------------------
2)-------------------------------------------------------------------------
3)-------------------------------------------------------------------------
4)-----------4-----------0-----------------4------------0-----------------------
5)----2-----------2----------------------------------------------------
6)-----------------------------------3----------3-------------------------------- -




men podrias ponerla completa es la locura ese tema............ : )
@steep10 Hace más de 4 años
este es el intro de la cancion
METALLICA-ONE

e|---------------------------------------------------------------------------|
b|---------------------------------------------------------------------------|
g|------------------------------------------------------------------------0--|
D|----4-----0--(0)------4-----0--(0)-------4-----0--(0)------4-----0--(0)----|
A|-2-----2------------------------------2-----2------------------------------|
E|-------------------3-----3------------------------------3-----3------------|


e|--------------------------------------------------------------------|
b|--------------------------------------------------------------------|
g|--------------------------------------------------------------------|
D|----4------0--(0)------4-----0--(0)------4-----0--(0)---------------|
A|-2-----2------------0-----0--------------------------------2-----2--|
E|--------------------------------------3-----3-----------0-----2-----|
@guandulo Hace más de 4 años
slayer raining blood
death skin mask
P.M====| Play 2 times
||---------------------------------------------------------||
||---------------------------------------------------------||
||---------------------------------------------------------||
||----------8-9-8------8-7-------7-6-----------------------||
||-------7----------9---------8----------------------------||
||0-0-0----------------------------------------------------||

W/Riff A (2 times)
GTR II
P.M.===| + +
||---------------------------------------------------------||
||---------------------------------------------------------||
||----------8-9-8------8-7-----7-6-------------------------||
||-------7----------9--------8-----------------------------||
||---------------------------------------------------------||
||0-0-0----------------------------------------------------||

Both Guitars
P.M.=======================================================
||---------------------------------------------------------||
||---------------------------------------------------------||
||O--------------------------------------------------------||
||O--------------------------------------------------------||
||---------------------------------------------------------||
||-000-000-000-000-000-000-000-000-000-000-000-000---------||

P.M.=======| (play 4 times)
||---------------------------------------------------------||
||---------------------------------------------------------||
||--------------------------------------------------------O||
||----------------3---2-----------------------------------O||
||------------4-----------3---2----------------------------||
||-0--2---4--------------------------------------------
dead
|-----9-10-----9-10-----9-10---9-10-------|
|---7--------8--------7------8------------|
|-0--------0--------0---------------------|
|Guitar 1 (king) after intro |
|-----------------------------------------|
|-----------------------------------------|
|-9~~~~~~~~~~~~~~~~~~~~~~~~~~~~~~~~~~~~~~~|
|-----------------------------------------|
|-----------------------------------------|
|-----------------------------------------|

Both guitars (king and Hanneman)
|--------------------------------------|
|--------------------------------------|
|-----------------------------------9~~|
|-----9-10-----9-10-----9-10---9-10----|
|---7--------8--------7------8---------|
|-0--------0--------0------------------|
| |
|--------------------------------------|
|--------------------------------------|
|-----------------------------------9~~|
|-----9-10-----9-10-----9-10---9-10----|
|---7--------8--------7------8---------|
|-0--------0--------0------------------|
@lalilalilali Hace más de 3 años
titanic:

INTRO


EI--3--5-5-7---5-3-5-10---8-7-3-------------|
BI-------------------------------5-3--------|
GI------------------------------------------|
DI------------------------------------------|
AI------------------------------------------|
EI------------------------------------------|


EI--3--5-5-7---8-7-5-3-5-10---7-10-12-10--5-|
BI------------------------------------------|
GI------------------------------------------|
DI------------------------------------------|
AI------------------------------------------|
EI------------------------------------------|


Estrofas


EI--3-3-3-3-2-3--3-2-3--5-7-5---3-3-3-3-2-3-5-0---R--|
BI------------------------------------------------E--|
GI------------------------------------------------P--|
DI------------------------------------------------I--|
AI------------------------------------------------T--|
EI------------------------------------------------E--|


EI--3-5--0-10-8-7-5--7-8-7-5-3-2-3-------------------|
BI---------------------------------------------------|
GI---------------------------------------------------|
DI---------------------------------------------------|
AI---------------------------------------------------|
EI---------------------------------------------------|

EI--3-5--0-10-8-7-5--7-8-7-5-3-2-3-3-2-3--5-7-5-3----|
BI---------------------------------------------------|
GI---------------------------------------------------|
DI---------------------------------------------------|
AI---------------------------------------------------|
EI---------------------------------------------------|


EI--3-3-3-3-2-3--3-2-3--5-7-5---3-3-3-3-2-3-5-0---R--|
BI------------------------------------------------E--|
GI------------------------------------------------P--|
DI------------------------------------------------I--|
AI------------------------------------------------T--|
EI------------------------------------------------E--|
@EzeEiras Hace más de 3 años
hola amigos soy nuevo en taringa pero les pasare el intro de sweet child o´ mine, y es asi:

E|-------------13---12--- | |
B|----13------------------ | |
G|-------12-10--12---12 | X 2 |
D|--10-------------------- | |
A|------------------------- | |
E|------------------------- | |
|
E|-------------13 ---12 ---| |
B|----13 -------------------| |
G|-------12 -10 --12 ---12| X 2 |
D|--12 ---------------------| |
A|---------------------------| |
E|---------------------------| |
|=========|X3
E|-----------------13 ---12--| |
B|----13----------------------| |
G|--10-----12-10 --12 ---12| X 2 |
D|----------------------------| |
A|----------------------------| |
E|----------------------------| |
|
E|-------------13---12--- | |
B|----13------------------ | |
G|-------12-10--12---12 | X 2 |
D|--10-------------------- | |
A|------------------------- | |
E|------------------------- | |

y el cierre a este intro es asi:

E|-10---10-12-13-12-10-- |
B|----13------------------13|
G|--------------------------- | X1
D|--------------------------- |
A|--------------------------- |
E|--------------------------- |

BUENO ESPERO QUE ESTE PRIMER PUNTEO QUE PUBLICO LES SIRVA CUALQUIER DUDA MANDEN ME UN MAIL A: EZEQUIELEIRAS@HOTMAIL.COM
@EzeEiras Hace más de 3 años
NOTA: EL PUNTEO DEL "X3" ES HASTA DONDE EMPIEZA EL CIERRE DEL INTRO
@LuchoSansi Hace más de 3 años
Gente taringuera! Acabo de unirme a la comunidad, ya que esta semana empiezo con la guitarra! Hay muchas ganas, estuve viendo y maaaas ganas me dieron! Espero seguir encontrando punteos faciles como estos, calculo que los voy a poder sacar!! Gracias taringaaaaa
@pYRASYUs Hace más de 3 años
alguien tiene algun punteo de alguna cancion renacentista o mas o menos por ese estilo??? le agradeceria mucho si me ayudan con eso
@darkpoet1988 Hace más de 3 años
yeahhhhhhhhhh guitarra mi primer y gran amor...jejejje
@kevin_9994 Hace más de 3 años
si stan buenos pero el q mas me gusto fue satisfaction de los rolings stones
@kevin_9994 Hace más de 3 años
haber si me pueden pasan unos punteos alli para aprenderme unos nuevos =D XD
@TheMauricio164 Hace más de 3 años
Aqui les dejo una de mis canciones favoritas (no es cierto xD) la cancion de BARNEY.!!!!!!! wiii.!!! xD

e|----0-0-2-4-0-4-2----0-0-2-4-0---
B|--0--------------------0---------------4
G|------------------------------------------
D|------------------------------------------
A|-------------------------------------------
E|-------------------------------------------

e|-----0-0-2-4-5-4-2-0-----------------
B|--0-----------------------4-0-2-4-5-5
G|------------------------------------------
D|------------------------------------------
A|------------------------------------------
E|------------------------------------------

e|--------------------------------------------
B|--0-2-4-2-1-2-4-5---0-0-2-0--------
G|-------------------------------------2-1-4
D|--------------------------------------------
A|---------------------------------------------
E|--------------------------------------------

e|---------------------------------------------
B|--0-2-4-2-1-2-4-5----0-0-5-4-7-5-5
G|---------------------------------------------
D|---------------------------------------------
A|---------------------------------------------
E|---------------------------------------------

e|-------0-0-2-4-5-4-2-0------------------
B|--0--------------------------4-0-2-4-5-5
G|----------------------------------------------
D|----------------------------------------------
A|----------------------------------------------
E|---------------------------------------------
@ZoSopage Hace más de 3 años
fade to black y one de metallica

fade to black
|------------------------|------------------------|
|------------------------|------------------------|
|-------0----------------|-------0----------------|
|----4-----4-----4-----4-|----4-----4-----4-----4-|
|-2-----------2-----5----|-0-----------0-----5----|
|------------------------|------------------------|

|------------------------|------------------------|
|------------------------|------------------------|
|-------0----------------|-------2----------------|
|----4-----4-----4-----4-|----2-----2-----2-----2-|
|-2-----------2-----5----|-4-----------4-----0----|
|------------------------|------------------------|

one
|--------------|--------------|--------------|-------------------|

|--------------|--------------|--------------|-------------------|
|--------------|--------------|--------------|----------------0--|
|-----4-----0--|-----4-----0--|-----4-----0--|-----4-----0-------|
|--2-----2-----|--------------|--2-----2-----|-------------------|
|--------------|--3-----3-----|--------------|--3-----3----------|

D/A Gmaj7(no3rd)
|--------------|--------------|--------------|-------------------|
|--------------|--------------|--------------|-------------------|
|-(0)----------|--------------|--------------|-------------------|
|-----4-----0--|-----4-----0--|-----4-----0--|-------------------|
|--2-----2-----|--0-----0-----|--------------|-----2-----2-------|
|--------------|--------------|--3-----3-----|--0-----2----------|

Bm Gmaj7(no3rd) Bm
|--------------|--------------|--------------|-------------------|
|--------------|--------------|--------------|-------------------|
|*-------------|--------------|--------------|--------------0----|
|*----4-----0--|-----4-----0--|-----4-----0--|-----4-----0-------|
|--2-----2-----|--------------|--2-----2-----|-------------------|
|--------------|--3-----3-----|--------------|--3-----3----------|

D/A Gmaj7(no3rd) [1. N.C ]
|--------------|--------------|--------------|-------------------|
|--------------|--------------|--------------|-------------------|
|--------------|--------------|--------------|------------------*|
|-----4-----0--|-----4-----0--|-----4-----0--|------------------*|
|--2-----2-----|--0-----0-----|--------------|-----2-----2-------|
|--------------|--------------|--3-----3-----|--0-----2----------|

[2. N.C ] Bm Gmaj7(no3rd)
|---------------------------|----------------------|-----------------------|
|---------------------------|----------------------|-----------------------|
|---------------------------|----------------------|-----------------------|
|---------------------------|-----4-----0--0--4----|-----4-----0--4--4--0--|
|-----2-----2-----2--2h4--2-|--2-----2-----------0-|-----------------------|
|--0-----2-----0------------|----------------------|--3-----3--------------|
@abcdfehij Hace más de 3 años
La d wish you where here no la entiendo...
@alethemachine Hace más de 3 años
soy nuevo en lo de la guitarra y ya me salio el del padrino y smoke on the water gracias gente
@joko3355 Hace más de 2 años
ese punteo,,,, el primero es una bobada ,,,,, pongas mas dificiles como los ultimos,,,,,
@joko3355 Hace más de 2 años
http://www.tusacordes.com/secciones/ver_tema.php?id=25320 hay esta este ,,muy bueno ,,toma tiempo en aprenderlo ..pero es muy bueno
@aldiabloconmipais Hace más de 2 años

NicoFender dijo:

destronadords dijo:

joaquinbiasella dijo:

lauta91 dijo:

juansumo dijo:yo tambien me prendo al pedidio y agrrego
sastifaction-los rolings stones

1)--------------------------------------------------------------------------
2)--------------------------------------------------------------------------
3)--------------------------------------------------------------------------
4)--------------------------------------------------------------------------
5)----------2--2---2-3-4---5-5-5--4-4-4-------------------------------
6)-------------------------------------------------------------------------



Eso no es un punteo es un riff.. :S ....


y esta mal ensima

es

1)--------------------------------------------------------------------------
2)--------------------------------------------------------------------------
3)--------------------------------------------------------------------------
4)--------------------------------------------------------------------------
5)----------2--2---2-4-5---5-5-5--4-4-4-------------------------------
6)-------------------------------------------------------------------------

saludos!!

te dejo uno

el del padrino (muy comico para los amigos)

1)------0----3--2--0--3--0--2--0-------------------0--3--2--0--3--0--2--0---------------
2)--0--------------------------------1--3--0------0----------------------------0------------
3)---------------------------------------------------------------------------------------3--2
4)--------------------------------------------------------------------------------------------
5)--------------------------------------------------------------------------------------------
6)--------------------------------------------------------------------------------------------

y dejo ahi porq no me da mas para el mensaje xD

saludos



mi punteo no esta mal el tullo esta mal



ah! "TUYO" se dice amigo.. que haces mejor?.. escribir o tocar la viola?? :S
estamos al horno con vos :O



dejen de tanta mamada el del padrino esta bien molon :o , cuando lo toque me senti como slash xD
ese de rolling stone es re facil y si , esta mal , es asi...

(se puede tocar en cualquier cuerda )
6
5
4
3
2
1----2----2-------2--4--5--555--4444----
( yo lo toco asi y sale bien molon , si no es asi por lo menos es mejor que esa otra version )
son geniales por subir esto , estoy arto de ese post que solo tiene la cucaracha y el payason plin plin xD
sobre todo gracias al que posteo la del padrino :3
@f7a2 Hace más de 3 meses
Esta es para los que les gusta el anime : Naruto - Sadness and sorrow

E|--2-0-----------0--3-5--0-------3---2---
B|-------0-------------------------------------
G|---------------------------------------------
D|---------------------------------------------
A|---------------------------------------------
E|---------------------------------------------

E|--3--5--------7--5------------------------
B|---------3----------------------------------
G|---------------------------------------------
D|---------------------------------------------
A|---------------------------------------------
E|---------------------------------------------
Tienes que ser miembro para responder en este tema