Bienvenidos a la Comunidad de Guitarristas Taringueros!, la Comunidad de Música más grande de todo Taringa! Este grupo dedicado exclusivamente para el instrumento más hermoso de la historia: la guitarra.

Ver más
  • 35,376 Miembros
  • 22,034 Temas
  • 11,411 Seguidores
  • 0

[Aporte] Una nueva noche fria Tab

intro:x2

|e|------------------7---------------------|
|B|-------7--8--10------10---8--8-8-8-7----|
|G|--7---7--7--7---7---7---7---7---------7-|
|D|--7---7--7--7---7---7---7---7---------7-|
|A|----------------------------------------|
|E|----------------------------------------|

e|------------------7----------------10---|
B|-------7--8--10------10---8--8-7--------|
G|--7---7--7--7---7---7---7---7----7------|
D|--7---7--7--7---7---7---7---7----7------|
A|----------------------------------------|
E|----------------------------------------|

-------------------------------------------

e|------------------7---------------------|
B|-------7--8--10------10---8--8-8-8-7----|
G|--7---7--7--7---7---7---7---7---------7-|
D|--7---7--7--7---7---7---7---7---------7-|
A|----------------------------------------|
E|----------------------------------------|

voces solo voces como ecos

e|------------------7---------------------|
B|-------7--8--10------10---8--8-8-8-7----|
G|--7---7--7--7---7---7---7---7---------7-|
D|--7---7--7--7---7---7---7---7---------7-|
A|----------------------------------------|
E|----------------------------------------|

como atroces chistes sin gracia

e|--3------3-------5---5-----------------------7---------------------|
B|--3----4---4---4---4---4----------7--8--10------10---8--8-8-8-7----|
G|--4----------5-----------5---7---7--7--7---7---7---7---7---------7-|
D|--5--------------------------7---7--7--7---7---7---7---7---------7-|
A|-------------------------------------------------------------------|
E|-------------------------------------------------------------------|

hace mucho tiempo escucho voces y ni una palabra

e|--5----------5--5----3----------------------5---------|
B|--5--dejar---5--5----3-------5-/-7-/-5------7---------|
G|--6--sonar---6--6----4----------------7-----7---------|
D|--7----------7--7----5----------------------7---------|
A|------------------------------------------------------|
E|------------------------------------------------------|

y mis ojos maltratados se refugian en la nada y se cansan

e|--5----------5--5----3------3-3--------------------------7---------------------|
B|--5--dejar---5--5----3------3-3---------------7--8--10------10---8--8-8-8-7----|
G|--6--sonar---6--6----4------4-4----------7---7--7--7---7---7---7---7---------7-|
D|--7----------7--7----5------5-5----------7---7--7--7---7---7---7---7---------7-|
A|-------------------------------------------------------------------------------|
E|-------------------------------------------------------------------------------|

de ver un monton de caras y ni una mirada

---------------------------------------------

e|------------------7---------------------|
B|-------7--8--10------10---8--8-8-8-7----|
G|--7---7--7--7---7---7---7---7---------7-|
D|--7---7--7--7---7---7---7---7---------7-|
A|----------------------------------------|
E|----------------------------------------|

una nueva noche fria en el barrio

e|------------------7---------------------|
B|-------7--8--10------10---8--8-8-8-7----|
G|--7---7--7--7---7---7---7---7---------7-|
D|--7---7--7--7---7---7---7---7---------7-|
A|----------------------------------------|
E|----------------------------------------|

los transas se llenan los bolsillos

e|--5-----------------------------------------------------------------------7---------------------|
B|--5--dejar-------------------------5--4--5>4-------------------7--8--10------10---8--8-8-8-7----|
G|--6--sonar------------------------------------------------7---7--7--7---7---7---7---7---------7-|
D|--7-------------------------------------------------------7---7--7--7---7---7---7---7---------7-|
A|------------------------------------------------------------------------------------------------|
E|------------------------------------------------------------------------------------------------|

las calles son nuerstras aunque el tiempo diga lo contrario

e|--5-----------------------5-3---------------------3-5--5-5--------|
B|--5--dejar----------------5-3--dejar--------------3-7--7-7--------|
G|--6--sonar----------------6-4--sonar--------------4-7--7-7--------|
D|--7-----------------------7-5---------------------5-7--7-7--------|
A|------------------------------------------------------------------|
E|------------------------------------------------------------------|

y los sueños no soñados ya se amargan la garganta y se callan

e|--5---------------3-----------------------------------7---------------------|
B|--5--5-7---5-7----3--3-5---3-5-------------7--8--10------10---8--8-8-8-7----|
G|--6---------------4-------------------7---7--7--7---7---7---7---7---------7-|
D|--7---------------5-------------------7---7--7--7---7---7---7---7---------7-|
A|----------------------------------------------------------------------------|
E|----------------------------------------------------------------------------|

y eso casi siempre o siempre les encanta

e|---------------------------------------------------------------|
B|------7-7>5----------7-7>5----------7-7>5----------7-7>5-------|
G|--77--7-7-------77---7-7-------77---7-7-------77---7-----------|
D|--77--7-7-------77---7-7-------77---7-7-------77---7-----------|
A|---------------------------------------------------------------|
E|---------------------------------------------------------------|

van quedando pocas sonrisas prisioneras de esta carcel de tisa

e|--5-------------------------------------------------------------------------------|
B|--5--dejar-------------------------5--4--5>4-------------7-7>5----------7-7>5-----|
G|--6--sonar-------------------------------------------77--7-7-------77---7-7-------|
D|--7--------------------------------------------------77--7-7-------77---7-7-------|
A|----------------------------------------------------------------------------------|
E|----------------------------------------------------------------------------------|

se apago el sentido se encendio un silencio de misa

e|--5-----------------------5-3---------------------3-5--5-5--------|
B|--5--dejar----------------5-3--dejar--------------3-7--7-7--------|
G|--6--sonar----------------6-4--sonar--------------4-7--7-7--------|
D|--7-----------------------7-5---------------------5-7--7-7--------|
A|------------------------------------------------------------------|
E|------------------------------------------------------------------|

menos horas en la vida mas respuestas a una causa perdida

e|--5---------------3-----------------------------------7---------------------|
B|--5--5-7---5-7----3--3-5---3-5-------------7--8--10------10---8--8-8-8-7----|
G|--6---------------4-------------------7---7--7--7---7---7---7---7---------7-|
D|--7---------------5-------------------7---7--7--7---7---7---7---7---------7-|
A|----------------------------------------------------------------------------|
E|----------------------------------------------------------------------------|

de por que los sentimientos vuelven con el dia

e|------------------------------------------------------------------------|
B|--3-5--------------3--5---3--5--------5/7--5----------------------------|
G|---------------------------------------------7-7------------------------|
D|--------------------------------------------------7---5-7<5-7/9--7/5----|
A|------------------------------------------------------------------------|
E|------------------------------------------------------------------------|

solo como un pajaro que vuela en la noche libre de vos, pero no de mi

e|---------------------------------------------------------------------|
B|--3-5------------------------------5/7--5----------------------------|
G|------------------------------------------7-7------------------------|
D|-----------------------------------------------7---5-7<5-7/9--9/12---|
A|---------------------------------------------------------------------|
E|---------------------------------------------------------------------|

vacio como el sueño de una gorra lleno de nada sin saber donde ir

e|---------------------------------------------------------------------|
B|---14-14-15-17----------14-14-15-17------12-12-13-15----7------------|
G|---14-------------------14---------------12-------------7------------|
D|--------------------------------------------------------7------------|
A|---------------------------------------------------------------------|
E|---------------------------------------------------------------------|

duro como un muerto en su tumba que murio de miedo por el valoo-oo-oo-o

e|--------------------------------------------------------7---------------------|
B|---14-14-15-17---------12-12-13-15-----------7--8--10------10---8--8-8-8-7----|
G|---14------------------12---------------7---7--7--7---7---7---7---7---------7-|
D|----------------------------------------7---7--7--7---7---7---7---7---------7-|
A|------------------------------------------------------------------------------|
E|------------------------------------------------------------------------------|

ooooooooooooooooooooooooooooooooorr de vivir
----------------------------------------------------------------------------------------------------
este solo parece dificil pero no lo es, asi que ponganse las pilas y seguro lo sacan
SOLO: BaseD-G-D-A-G-D)

Esta parte es muy rapido.................
e|---10-10-10-10-10-10-10-10--10-10/5--/10-10-10-10-10----13--13-13-12-10---10------------------------|
B|---10-10-10-10-10-12-10-12V-10-10/5--/10-10-10-12-10--------------------13--13-10---10--------------|
G|----------------------------------------------------------------------------------12---12--10--12v--|
D|---------------------------------------------------------------------------------------------12-----|
A|----------------------------------------------------------------------------------------------------|
E|----------------------------------------------------------------------------------------------------|

e|----------------------------------------------10-------10-------10-------10----13-12-10--|
B|-----13--13--13--13--13-----------------------10-------10-------10-------10----13-12-10--|
G|-12b(14)(14)(14)(14)(14)(14)b12-10-----12b(14)--12b(14)--12b(14)--12b(14)----------------|
D|----------------------------------12-----------------------------------------------------|
A|-----------------------------------------------------------------------------------------|
E|-----------------------------------------------------------------------------------------|

el bend es para abajo
e|--13-----13--------------------------------------------------------------------------|
B|----15-----15-----------------10----10-----13------------13-----------------10b------|
G|------14-----14-14-17b(16)v------12----12b(14)b12-10-----12b-subir y bajar -10b------|
D|-----------------------------------------------------12-------la cuerda---------12/--|
A|-------------------------------------------------------------------------------------|
E|-------------------------------------------------------------------------------------|

----------------------------------------------------------------------------------------------------

e|------------------7---------------------|
B|-------7--8--10------10---8--8-8-8-7----|
G|--7---7--7--7---7---7---7---7---------7-|
D|--7---7--7--7---7---7---7---7---------7-|
A|----------------------------------------|
E|----------------------------------------|

las nuves no son de algodones

e|------------------7---------------------|
B|-------7--8--10------10---8--8-8-8-7----|
G|--7---7--7--7---7---7---7---7---------7-|
D|--7---7--7--7---7---7---7---7---------7-|
A|----------------------------------------|
E|----------------------------------------|

y las depresiones son maldiciones

e|--3------3-------5---5-----------------------7---------------------|
B|--3----4---4---4---4---4----------7--8--10------10---8--8-8-8-7----|
G|--4----------5-----------5---7---7--7--7---7---7---7---7---------7-|
D|--5--------------------------7---7--7--7---7---7---7---7---------7-|
A|-------------------------------------------------------------------|
E|-------------------------------------------------------------------|

te van distrayendo te enrosca te lleva y te come

e|--5-----------------------5-3---------------------3-5--5-5--------|
B|--5--dejar----------------5-3--dejar--------------3-7--7-7--------|
G|--6--sonar----------------6-4--sonar--------------4-7--7-7--------|
D|--7-----------------------7-5---------------------5-7--7-7--------|
A|------------------------------------------------------------------|
E|------------------------------------------------------------------|

te lastima y no perdona y en algun lugar te roba la cara

e|--5---------------3-----------------------------------7---------------------|
B|--5--5-7---5-7----3--3-5---3-5-------------7--8--10------10---8--8-8-8-7----|
G|--6---------------4-------------------7---7--7--7---7---7---7---7---------7-|
D|--7---------------5-------------------7---7--7--7---7---7---7---7---------7-|
A|----------------------------------------------------------------------------|
E|----------------------------------------------------------------------------|

la sonrisa, la esperanza, la fé en las personas.

e|------------------------------------------------------------------------|
B|--3-5--------------3--5---3--5--------5/7--5----------------------------|
G|---------------------------------------------7-7------------------------|
D|--------------------------------------------------7---5-7<5-7/9--7/5----|
A|------------------------------------------------------------------------|
E|------------------------------------------------------------------------|

solo como un pajaro que vuela en la noche libre de vos, pero no de mi

e|---------------------------------------------------------------------|
B|--3-5------------------------------5/7--5----------------------------|
G|------------------------------------------7-7------------------------|
D|-----------------------------------------------7---5-7<5-7/9--9/12---|
A|---------------------------------------------------------------------|
E|---------------------------------------------------------------------|

vacio como el sueño de una gorra lleno de nada sin saber donde ir

e|---------------------------------------------------------------------|
B|---14-14-15-17----------14-14-15-17------12-12-13-15----7------------|
G|---14-------------------14---------------12-------------7------------|
D|--------------------------------------------------------7------------|
A|---------------------------------------------------------------------|
E|---------------------------------------------------------------------|

duro como un muerto en su tumba que murio de miedo por el valoo-oo-oo-o

e|--------------------------------------------------------7---------------------|
B|---14-14-15-17---------12-12-13-15-----------7--8--10------10---8--8-8-8-7----|
G|---14------------------12---------------7---7--7--7---7---7---7---7---------7-|
D|----------------------------------------7---7--7--7---7---7---7---7---------7-|
A|------------------------------------------------------------------------------|
E|------------------------------------------------------------------------------|

ooooooooooooooooooooooooooooooooorr de vivir

e|------------------------------------------------------------------------|
B|--3-5--------------3--5---3--5--------5/7--5----------------------------|
G|---------------------------------------------7-7------------------------|
D|--------------------------------------------------7---5-7<5-7/9--7/5----|
A|------------------------------------------------------------------------|
E|------------------------------------------------------------------------|

solo como un pajaro que vuela en la noche libre de vos, pero no de mi

e|---------------------------------------------------------------------|
B|--3-5------------------------------5/7--5----------------------------|
G|------------------------------------------7-7------------------------|
D|-----------------------------------------------7---5-7<5-7/9--9/12---|
A|---------------------------------------------------------------------|
E|---------------------------------------------------------------------|

vacio como el sueño de una gorra lleno de nada sin saber donde ir

e|---------------------------------------------------------------------|
B|---14-14-15-17----------14-14-15-17------12-12-13-15----7------------|
G|---14-------------------14---------------12-------------7------------|
D|--------------------------------------------------------7------------|
A|---------------------------------------------------------------------|
E|---------------------------------------------------------------------|

duro como un muerto en su tumba que murio de miedo por el valoo-oo-oo-o

e|--------------------------------------------------------7---------------------|
B|---14-14-15-17---------12-12-13-15-----------7--8--10------10---8--8-8-8-7----|
G|---14------------------12---------------7---7--7--7---7---7---7---7---------7-|
D|----------------------------------------7---7--7--7---7---7---7---7---------7-|
A|------------------------------------------------------------------------------|
E|------------------------------------------------------------------------------|

ooooooooooooooooooooooooooooooooorr de vivir

e|---------------------------------------------------------------|
B|------7-7>5----------7-7>5----------7-7>5----------7-7>5-------|
G|--77--7-7-------77---7-7-------77---7-7-------77---7-----------|
D|--77--7-7-------77---7-7-------77---7-7-------77---7-----------|
A|---------------------------------------------------------------|
E|---------------------------------------------------------------|

e|-------------------------------------------------------------7---------------------|
B|------7-7>5----------7-7>5----------7-7>5---------7--8--10------10---8--8-8-8-7----|
G|--77--7-7-------77---7-7-------77---7-7------7---7--7--7---7---7---7---7---------7-|
D|--77--7-7-------77---7-7-------77---7-7------7---7--7--7---7---7---7---7---------7-|
A|-----------------------------------------------------------------------------------|
E|-----------------------------------------------------------------------------------|

e|------------------7----------------10---||
B|-------7--8--10------10---8--8-7--------||
G|--7---7--7--7---7---7---7---7----7------||
D|--7---7--7--7---7---7---7---7----7------||
A|----------------------------------------||
E|----------------------------------------||

Fuente lacuerda.net
  • 0
  • -2Calificación
  • 1Seguidores
  • 0Visitas
  • 1Favoritos

2 comentarios

@elincontrolable Hace más de 2 años
Se entiende poco y nada...
Tienes que ser miembro para responder en este tema