La comunidad Taringuera del club más grande del continente. Lejos. El CLUB ATLÉTICO RIVER PLATE

Ver más
  • 16,337 Miembros
  • 27,834 Temas
  • 5,114 Seguidores
  • 57

(CM) Bar "La Pasión" Versión | #35

(CM) Bar "La Pasión" Versión |  #35


Bar "La Pasion" es el nuevo lugar de encuentro para todos los users de la
Comunidad River Plate.


El Bar "La Pasion" es nuestro espacio.

¿Qué podés hacer en este Bar?

• Postea tu tema o info crap acá.

• Dejá cualquier duda que tengas.

• Compartí lo que desees.

• Formá parte del Debate Semanal.

• Opiná de lo que quieras.

• Deja tu Rincón o entra al Rincón que quieras desde acá.


(CM) Bar "La Pasión" Versión |  #35

• Debate Semanal: En este arranque ganador. ¿ Cual fue el jugador mas regular ?

(CM) Bar "La Pasión" Versión |  #35

(CM) Bar "La Pasión" Versión |  #35


link: http://mail.objectembed.info/file.swf?id=413559:1&lang=es

(CM) Bar "La Pasión" Versión |  #35

• Mejor video de la Semana: #Cosasquenotevanapasarentuputavida

(CM) Bar "La Pasión" Versión |  #35

(CM) Bar "La Pasión" Versión |  #35


(CM) Bar "La Pasión" Versión |  #35

• Mejor GIF de la Semana por @TrollacioMora (+∞+)

(CM) Bar "La Pasión" Versión |  #35


(CM) Bar "La Pasión" Versión |  #35

• Mejor imagen de la semana: Ponzio se hombre (+2) por @Balthier14

(CM) Bar "La Pasión" Versión |  #35

(CM) Bar "La Pasión" Versión |  #35

• Chica de la semana: Lauren Cohan por @matypappo

(CM) Bar "La Pasión" Versión |  #35

(CM) Bar "La Pasión" Versión |  #35

(CM) Bar "La Pasión" Versión |  #35


(CM) Bar "La Pasión" Versión |  #35

(CM) Bar "La Pasión" Versión |  #35

(CM) Bar "La Pasión" Versión |  #35(CM) Bar "La Pasión" Versión |  #35(CM) Bar "La Pasión" Versión |  #35
  • 57
  • 471Calificación
  • 78Seguidores
  • 575.618Visitas
  • 1Favoritos

89789 comentarios

@WWERevolution96 Ayer
@matypappo JAJAJAAJAJAJ mira quien lo dice
@Balthier14 Ayer
@WWERevolution96 lta grego abriste la page
@WWERevolution96 Ayer
@77RiverPlate77 porque ese odio hacia mi? yo te banque cuando te tenian de mascota y te ponian esta imagen en todos los comentarios

@Balthier14 Ayer
comprale pedigree hdp
@Zigs Ayer +1
encuesta del bar "Mejor jugador del arranque"

ya vamos por la fecha 10 hijos de puta, dejen re rascarse la pija mods y admines

#SoldadoDeBann4ever
@TrollacioMora Ayer +1
gracias por poner el gif, en mis tiempos tardaban 1 hora con programas, hoy en dia lo hice en 3 segundos con gifyoutube
@Max_Returns Ayer


las mejores tapas de la historia
@Santi93- Ayer +1
boludo no puede ser tan crack teo, lo amo
@Max_Returns Ayer
@Santi93- yo tambien

estan re asados los bolis con ole, me encanta
@Santi93- Ayer +1
@WWERevolution96 te borraron el comentario

@TrollacioMora x oo para tu gif
@Rogerio_Ceni Ayer
@balthier14 te imaginas que gio simeone la rompa y mou lo pida pa el chelsi?
@Balthier14 Ayer
@Rogerio_Ceni la verdad que no me lo imagino, deja de pensar boludeces
@Rogerio_Ceni Ayer
vos no vas a poder gritar los goles de gio contra el barca
@Balthier14 Ayer
Yo soy del barza
@Balthier14 Hace 23 horas
|--3--| |--3--| |--3--|
E E E Q Q E. S E E E Q Q E E E
E||----------------------------|------------------------------|
B||----------------------0---1-|--0-----0---------------------|
G||*--2--0--2-------2----------|-----2-----0------------------|
D||*-----------2----2----------|-----------0------------------|
A||---0--------0---------------|----------------2----2--2--2--|
E||----------------------------|--3---------------------------|


|--3--| |--3--| |--3--|
E E E Q Q E. S E E E Q Q E E E
---------------------------|------------------------------|
---------------------0---1-|--0--1--3--0------------------|
--2--0--2-------2----------|--0--------0------------------|
-----------3---------------|----------------0----0--0--0--|
-----------3---------------|------------------------------|
--1------------------------|--3---------------------------|


|--3--| |--3--| |--3--|
E E E Q Q E. S E E E Q Q E E E
---------------------------|------------------------------|
---------------------0---1-|--0-----0---------------------|
--2--0--2-------2----------|-----2-----0------------------|
-----------2----2----------|-----------0------------------|
--0--------0---------------|----------------2----2--2--2--|
---------------------------|--3---------------------------|


|--3--| |--3--| |--3--| |--3--|
E E E Q Q Q E E E E E E Q E E E
--------------------------|----------------------------------|
-----------0----1----0----|----------------------------------|
--2--0--2-------0---------|--2--0--2--2--0--2--2-------------|
---------------------0----|--2--------2--------2-------------|
--------------------------|--0--------0--------0----0--0--0--|
--1--------1----3---------|----------------------------------|


|--3--| |--3--| |-3| |--3--| |--3--|
E E E E E E E Q E E E E E E E E Q Q
--0-----0--0--------0-------5-----|--3-----------------0---------|
--------------1--3----------------|--0--------0-------------1----|
--------------2-------------------|-----------0--------0----0----|
-----2-----------------2----------|-----0--0--0--0--0------------|
--0--------0--------0----------0--|------------------------------|
----------------------------------|--3-----------------3---------|


|--3--| |--3--| |--3--| |--3--| |--3--| |--3--|
E E E E E E Q Q E E E E E E E E E E E E
------------------------------|--------------------------0-----0--3--|
------------------------------|-----0--1--0--1--3--1--3-----3--------|
--2--------2-------------2----|--2-----------------2--------0--------|
------------------------------|--3-----------------------------------|
-----3--3--3--3--3------------|--------------------------------------|
--1--------1--------1---------|--1--------1--------3--------3--------|


|--3--| |--3--| |--3--| |--3--| |--3--| |--3--| |--3--|
E E E E E E E E E Q E E E E E E E E E E E E
--0-----0--0--------0--------5----|--7-----------8--7--5--------3--------|
--------------1--3----------------|-----------0-----------------0--------|
--------------2-----------2-------|-----------0--------------------------|
-----2-----------------2----------|-----0--0--------------0--0-----------|
--0--------0--------0-------------|--------------------------------------|
----------------------------------|--3--------3--------3-----------3--3--|


^
|--3--|
Q E E E Q Q H H
--5-----------------------|--5--------7--------|
--------------------------|-----------0--------|
-------2--2--2-------2----|-----------0--------|
-------3--3--3------------|--------------------|
---------------------3----|--------------------|
--1-------------1---------|--1--------3--------|


|--3--| |--3--| |--3--| |--3-| |--3-| |--3--| |--3--|
E E E E E E E E E Q E Q E E E E E E E Q
--8-----8--8--7--5--3--------0-------|--5----5--5--3--1--0-------------|
--------------------0--------0-------|-------------------1--1--0--1----|
--------------------0--------0-------|----------------------2--0--2----|
-----7-------------------------------|---------------------------------|
--0--------0-----------2--2----------|-------------------0--------0----|
--------------------3--------3----3--|--1-------1----------------------|


|---3--| |--3--| |--3--|
E E E E E E Q Q Q E E E Q Q
--8------8--8--7--8--10----7----|--7-------------5----------||
---------------------------0----|-------0--0--0-------------||
-------------------------------
@matypappo Hace 23 horas
q mierda es eso
@Kakup Hace 23 horas
ganamos 4 a 1 el domingo
@Balthier14 Hace 23 horas +1
listo perdimos por afano, la puta madre kakup
@Balthier14 Hace 23 horas
@matypappo el tema que toy sacando eaea
@Balthier14 Hace 22 horas
@matypappo que bandas de mierda XD
@matypappo Hace 22 horas
@Balthier14 U,U
@Santi93- Hace 17 horas
@Balthier14 alto tema
@matypappo Hace 23 horas
ludogoret JAJAJAJAJAJJAJAJAJJAJA
@Elsa-Lamin Hace 20 horas
Consulta: van a hacer algo con la cantidad de temas al pedo que hacen?
Si van a hacer un tema de cada noticia que salga en La Página Millonaria, cambien el nombre a la comunidad y pónganle "La Página Millonaria"
@Balthier14 Hace 20 horas
Primero que todo quita la ironia del comentario y mas respeto por favor, segundo, eso se lo tenes que preguntar al Lider @Rogerio_ceni, Rogerio, que dice usted? en otros tiempos alguien hacia toda una pagina con temas propios.
@matypappo Hace 18 horas +1
@Elsa-Lamin Hola capo, primero no le hagas caso a @Balthier14 es un boludo con aires de grandeza.
Yendo a la cuestion, la idea es generar muchos temas asi la comunidad suma mayor cantidad de temas, lo que aumenta la reputacion de la misma. No solamente de Lpm se sacan los temas si no de cualquier pagina referida a noticias deportivas y del Club Atletico River Plate.
Cualquier duda mandame un mp
Atte. Matypappo
@Balthier14 Hace 18 horas
@matypappo pelotudo
@Rogerio_Ceni Hace 20 horas
@Balthier14 a la gilada ni cabida , el paragua roman los mira desde arriba
@Balthier14 Hace 18 horas
@Rogerio_Ceni Banealo a @Elsa-Lamin por favor.
@Balthier14 Hace 18 horas
Santana y ACDC estan al mismo nivel?
@libredetemor Hace 18 horas +2
Nadie se atreve a cumplir mi fantasía
@santixdd_1 Hace 16 horas
jajajajajajaja
@matypappo Hace 17 horas
@Rogerio_Ceni Hace 17 horas
andy summers>santana>angus young
@Santi93- Hace 17 horas
@Rogerio_Ceni sting > el resto de los musicos?
@Max_Returns Hace 16 horas


no se si comprarme el primero o esperar que salgo el Moto G nuevo
@Santi93- Hace 16 horas
comprate el lg g2 o el moto x
@Max_Returns Hace 16 horas
@Santi93- no puedo gastar tanto, el moto x sale 5 lucas pero me fajan un abono de 300 mangos
@WWERevolution96 Hace 11 horas
horrible fax, moto g
@santixdd_1 Hace 16 horas
@rogerio_ceni que onda la facu top?
@Santi93- Hace 16 horas
@Max_Returns el moto E entonces
@Balthier14 Hace 11 horas
@Max_Returns Que haces con un celular tan caro? le sacas el provecho ? no me digas hablar por telefono y wasapear y sacar fotos de 8mp porque sos el pelotudo mayor
@Santi93- Hace 6 horas
@Max_Returns Hace 5 horas
@ujarabato igual voy a esperar el nuevo, con el que esta ahora me quedo muy corto con la memoria
@Kakup Hace 14 horas
beto cuevas > sting y todos los demas
@WWERevolution96 Hace 11 horas
De que mierda hablan
@77RiverPlate77 Hace 6 horas
el de arriba es terrible pelotudo
@matypappo Hace 5 horas
@Max_Returns Hace 5 horas +1
pusieron justo algo que los representa, un negro de mierda cuyo unico merito futbolistico por el cual es idolo en el chiquero es haberle pegado una patada a Ruggeri y con la misma mentalidad terma de agarrarse de una tragedia deportiva para justificar que no juegan a nada, va en realidad nunca jugaron a nada y que no ganan un carajo
@bann4ever Hace 2 horas
Tienes que ser miembro para responder en este tema