Créditos:

Letra: R. Boccacci / Música: R. Boccacci - Carlos La Regina

Sub-géneros:

Pop

El buen gaucho

Suave

Belladona

El buen gaucho le da de comer con la mano al pingo

G D B7 C
No quedan groupies, se esta poniendo mal
Em B7 C G D
Y no recuerdo lo bueno que era cabalgar.
G D B7 C
Vida de hippie, la lima se empieza a notar,
Em B7 C G D
No larguen los perros, déjenme ganar.

F C F C F C G F G
La noche se hizo pedazos
F C F C F C G F C
Y el pingo no come hace rato.
F C F C F C G F G
La noche castiga el relajo
F C F C F C G F C
Y el buen pingo esta solo en el rancho.

Aman los yupies, odian el carnaval
Y no regalan un beso a un pobre chaval.
No es que sea cursi, no es que yo huela mal,
Estoy pasado de moda para este lugar.

La noche se hizo pedazos
Y el pingo no come hace rato.
La noche castiga el relajo
Y el buen pingo esta solo en el rancho.

G G/F#
Perdí el encanto, perdí la voz,
G/F Cadd9
Perdí hasta el llanto y nada pasó,
Y estoy aquí sangrando.
Nunca me fui ni me perdí,
Pasó el tiempo y no crecí,
Bien, bien.

La noche se hizo pedazos
Y el pingo no come hace rato.
La noche castiga el relajo
Y el buen pingo esta solo en el rancho.

G
1E------------3
2B------------3
3G--0----------
4D--0----------
5A-------2-----
6E------------3


D
1E-------2-----
2B------------3
3G-------2-----
4D--0----------
5A-------------
6E--X----------

B7
1E---------2----
2B--0-----------
3G---------2----
4D-----1--------
5A---------2----
6E-X------------

Em
1E--0-----------
2B--0-----------
3G--0-----------
4D---------2----
5A---------2----
6E--0-----------

F
1E-X-----------
2B----1--------
3G--------2----
4D------------3
5A-X-----------
6E-X-----------

G/F#
1E------------3
2B------------3
3G--0----------
4D--0----------
5A-X-----------
6E-------2-----

G/F
1E------------3
2B------------3
3G--0----------
4D--0----------
5A-X-----------
6E----1--------

Cadd9
1E------------3
2B------------3
3G--0----------
4D-------2-----
5A------------3
6E-X-----------

  • 3
  • 4Calificación
  • 0Seguidores
  • 7.810Escuchas
  • 535Visitas
  • 0Favoritos

0 comentarios