Créditos:

Letra: R. Boccacci / Música: R. Boccacci - Carlos La Regina

Sub-géneros:

Pop

Solo es oro

Suave

Belladona

Solo es oro

A F#m C#7 D
Así es como voy, juntando monedas,
A B7 E7sus4 E7
quemando velas, penas, nada mas.

No nos importó sentir la miseria,
Mirar de afuera, pesa respirar.

Bm7
Y si hay que ser tan pobre
D
Para llevarte al borde
B7
Y sin que nada cueste tanto como quieran nena,
E7
Poderte empujar.

A B7
Solo es oro. A quien le importa el oro?
D E7 A
Si en el viaje no te va a ayudar.
Solo es oro. A quien le importa el oro?
Si en el viaje no te va a ayudar.

Abajo el dolor, arriba tu estrella,
Que otra queda, piensa escapar.
Se viene con vos y al rato se aleja,
Queda en queja, asemeja y así nada, nada mas.

Y si hay que ser tan pobre
Para llevarte al borde
Y sin que nada cueste tanto como quieran,
Poderte empujar.

Solo es oro. A quien le importa el oro?
Si en el viaje no te va a ayudar.
Solo es oro. A quien le importa el oro?
Si en el viaje no te va a ayudar...


A
1E--0-----------
2B--0------2----
3G---------2----
4D---------2----
5A--0-----------
6E--0-----------

F#m
1E--2-----------
2B--2-----------
3G--2-----------
4D---------4----
5A---------4----
6E--2-----------

C#7
1E-X-----------
2B----2--------
3G------------4
4D--------3----
5A------------4
6E-X-----------

D
1E-------2-----
2B------------3
3G-------2-----
4D--0----------
5A-------------
6E--X----------

B7
1E---------2----
2B--0-----------
3G---------2----
4D-----1--------
5A---------2----
6E-X------------

E7sus4
1E--0-----------
2B--0-----------
3G---------2----
4D--0-----------
5A---------2----
6E--0-----------

E7
1E--0-----------
2B--0-----------
3G-----1--------
4D--0-----------
5A---------2----
6E--0-----------

Bm7
1E----2-------
2B-------3----
3G----2-------
4D-----------4
5A----2-------
6E-X----------
  • 2
  • 4Calificación
  • 0Seguidores
  • 7.714Escuchas
  • 544Visitas
  • 1Favoritos

0 comentarios