a tocar guitarra con akash

bueno hoy quise traerles algun@s acordes y tablaturas para que se las tokn en la guitarra de akash

angel
.,.esta cancion tiene un arpegio mui sencillo ke aplika para todas
las notas.,en la parte de el coro se toca como el intro,,,
espero les guste y pues ia saben ke si tienen algun

arpegio hasta el coro.

Bm F#m Em A Aª A9 A

e-----2------2------0-------------
b----3-3----2-2----0-0---2/3-2---2
g---4---4--2---2--0---0--2---2-2-2
D------------------------2---2-2-2
A-2--------------2----------------
E---------2-----------------------

riff:ª
A
e-5--5--5--5--3-------------
b-3--3--3--3--3--2----------
g-2--2--2--2--2--2----------
D----------------2----------
A---------------------------
E---------------------------


intro : Bm,F#m, Em,Aº,A,A9,A (x4)


Bm F#m
Algunas veces he perdido el norte,
Em A
Buscando fuego donde no había luz.
Bm F#m
Solo importaban las cosas mundanas,
Em A
Dejando a un lado lo que es al amor.
Bm F#m
He besado los labios de otras
Em A
He deshojado más de una flor
Bm F#m
pero el almíbar dulce de tu boca,
Em A
cambió mi vida y mi corazón.... (riff 1)A
A Em G
Y quise ser algo más para ti que una imagen,
D Dª D A
que un recuerdo fugaz... (riff )
A Em G
Me vi en tus ojos y supe que al fin te había encontrado
D A
y ya no te irías de miii...

CORO...
Bm F#m Em A-Aª-A
Eres ángel que me llena de loca pasión,
Bm F#m Em A-Aª-A
ángel que robó todo mi corazón,
Bm F#m Em A-Aª-A
el fuego que consume todo mi ser,
Bm F#m Em A-Aª-A
el sueño que no quiero jamás perder....

Bm F#m
Mi corazón había sido un fantasma,
Em A
pagando solo en la oscuridad,
Bm F#m
un barco que había extraviado su curso,
Em A
naufragando en la tempestad..
Bm F#m
fuiste el timón que dio rumbo a mi vida,
Em A
la luz que a mis ojos hizo temblar,
Bm F#m
este camino que empezamos juntos,
Em A
es un regalo por la eternidad... (riff)
A Em G
Y llegue a ser algo más para ti que una imagen
D Dª D A
, que un recuerdo fugaz, (riff)
A Em G
Me vi en tus ojos y supe que al fin te había encontrado
D A Em F#m-Bm-F#m
y ya no te irías de miiiiii,
Em F#m-Bm-F#m Em - F#m-Bm-F#m Aª-A
te enamoraste de mi, me volví loco por ti, uuuuuuu..

Bm
El embrujo de tus labios me envolvió
Em F#m
enajenado con tu dulce voz,
Bm
recorrí cada espacio de tu ser,
Em F#m
cada centímetro de tu piellllllllll...
Bm
juntos sentimos lo que es el amor,
supimos como se hace el amor,
Em F#m Em -A
como se hace la vida a la marrrrr......

Bm-F#m-Em-Aª-A-A9-A(x2)

CORO....

Bm F#m Em A-Aª-A
Eres ángel que me llena de loca pasión,
Bm F#m Em A-Aª-A
ángel que robó todo mi corazón,
Bm F#m Em A-Aª-A
el fuego que consume todo mi ser,
Bm F#m Em A-Aª-A
el sueño que no quiero jamás perder...

Bm F#m Em A-Aª-A

Bm F#m Em A-Aª-A
El sueño que no quiero jamás perder....

Bm F#m Em A-Aª-A
Bm F#m Em A-Aª-A


Bm F#m Em A-Aª-A
Eres ángel que me llena de loca pasión,
Bm F#m Em A-Aª-A
ángel que robó todo mi corazón,
Bm F#m Em A-Aª-A
el fuego que consume todo mi ser,
Bm F#m Em A-Aª-A
el sueño que no quiero jamás perder...

Bm F#m Em A-Aª-A

Bm F#m Em A-Aª-A
El sueño que no quiero jamás perder....


ACORDES:

Bm F#m Em A Aª A9 D Dª G
e--2--2--0--0--0--0--2--3--3
b--3--2--0--2--3--0--3--3--3
g--4--2--0--2--2--2--2--2--0
r--4--4--2--2--2--2--0--0--0
A--2--4--2--0--0--0--0--0--2
E--2--2--0--0--0--0--0--0--3

las notas (Aº-Dª-A9) las verdad le coloke asi por ke no sabia
komo era,,,,


hielo de fuego
INTRO: G#-C#m-B-C#m-B-F#

e------------------------------------------------------------
b------------------------------------------------------------
G------------------------------------------------------------
D---6-4-6-8-4-6---6-4-6-8-4-6--------6-4-6-8-4-6--6-4-6-8-4-6
A--6------------6------------------6-------------6-----------
E-4----------------------------8-5---------------------------



---------------------------2-----------------------------------
------------5------------4---4----5------5-4------4------------
--------6-4--4-6--6----4-------4----6--------4--------3--------
------6-------------4-----------------6--------4--------4------
---4------------------------------------------------------4----
-7----------------------------------------------------------2--



Eras el amanecer
C Em Aª
-------------------
---------------0---
---0----0---2-0-0-2
--2----2---2--------
-3----2---0--------
-------------------


De una noche sin fin
C Em Aª
-------------------
---------------0---
---0----0---2-0-0-2
--2----2---2--------
-3----2---0--------
-------------------

Uncamino sin dirección
C Em Aª
--------------------
---------------0----
---0----0---2-0-0-2-
--2----2---2--------
-3----2---0---------
--------------------

Quizás fue mejor así
C Em Aª
--------------------
---------------0----
---0----0---2-0-0-2-
--2----2---2--------
-3----2---0---------
--------------------

Tus labios fueron el sol Hielo de fuego en mi corazón.
C#m B C#m B F#
---------------------2------------------------------------------
------------5-------4-4-------------5---5--4----4---------------
--------6-4--4-6---4---4--------------6------4------3-----------
-------6----------4---------------------6------4------4---------
------4-------------------------------------------------4-------
----------------------------------------------------------2-----


Esclavo de un sueño
C Em Aª
--------------------
---------------0----
---0----0---2-0-0-2-
--2----2---2--------
-3----2---0---------
--------------------

Un ángel que vi pasar
C Em Aª
--------------------
---------------0----
---0----0---2-0-0-2-
--2----2---2--------
-3----2---0---------
--------------------
Fuiste una quimera
C Em Aª
--------------------
---------------0----
---0----0---2-0-0-2-
--2----2---2--------
-3----2---0---------
--------------------
que me hizo volver amar
C Em Aª
--------------------
---------------0----
---0----0---2-0-0-2-
--2----2---2--------
-3----2---0---------
--------------------
Y de nuevo siento el dolor Hielo de fuego en mi corazón.
C#m B C#m B F#
---------------------2------------------------------------------
------------5-------4-4-------------5---5--4----4---------------
--------6-4--4-6---4---4--------------6------4------3-----------
-------6----------4---------------------6------4------4---------
------4-------------------------------------------------4-------
----------------------------------------------------------2-----

CORO

G#m F# E G#m
Como explicarle a mi alma que ya no estas aquí,
G#m F# E G#m
Como obligar a mis ojos q no lloren por ti,
G#m F# E G#m
Como pedirle a mi boca que deje de cantar,
E C#m F#
Como entendiera mi cuerpo que ya me canse,
G#m
Q ya me canse de amar.
-------------------
---------------7--7
-------------7--7--
----7--7---7-------
--7--7-------------
-5-----------------


No puedo evitar pensar
C Em Aª
--------------------
---------------0----
---0----0---2-0-0-2-
--2----2---2--------
-3----2---0---------
--------------------
Q hubiera sido de mí sin ti
C Em Aª
--------------------
---------------0----
---0----0---2-0-0-2-
--2----2---2--------
-3----2---0---------
--------------------
Y aunque aun todo es soledad
C Em Aª
--------------------
---------------0----
---0----0---2-0-0-2-
--2----2---2--------
-3----2---0---------
--------------------
Por un momento yo fui feliz
C Em Aª
--------------------
---------------0----
---0----0---2-0-0-2-
--2----2---2--------
-3----2---0---------
--------------------
Y miro mi realidad Hielo de fuego en mi corazón.
C#m B C#m B F#
---------------------2------------------------------------------
------------5-------4-4-------------5---5--4----4---------------
--------6-4--4-6---4---4--------------6------4------3-----------
-------6----------4---------------------6------4------4---------
------4-------------------------------------------------4-------
----------------------------------------------------------2-----

CORO

G#m F# E G#m
Como explicarle a mi alma que ya no estas aquí,
G#m F# E G#m
Como obligar a mis ojos q no lloren por ti,
G#m F# E G#m
Como pedirle a mi boca que deje de cantar,
E C#m F#
Como entendiera mi cuerpo que ya me canse,
G#m
Q ya me canse de amar.

F# E G#m
Como pedirle al planeta que deje de girar,
G#m F# E G#m
Como hacer que este sol te deje de alumbrar,
G#m F# E G#m
Como entendiera la lluvia que el frío me hace mal
E C#m F# G#m
Y es que me haces falta para poder, para poder respirar.


e------------------------------------------------------------
b------------------------------------------------------------
G------------------------------------------------------------
D---6-4-6-8-4-6---6-4-6-8-4-6--------6-4-6-8-4-6--6-4-6-8-4-6
A--6------------6------------------6-------------6-----------
E-4----------------------------8-5---------------------------



---------------------------2-----------------------------------
------------5------------4---4----5------5-4------4------------
--------6-4--4-6--6----4-------4----6--------4--------3--------
------6-------------4-----------------6--------4--------4------
---4------------------------------------------------------4----
-7----------------------------------------------------------2--


ACORDES:

C C#m F# B E Em Aª G#m G#
e-0--4--2--2-0-0--0--4--4
b-1--5--2--4-0-0--0--4--4
G-0--6--3--4-1-0--2--4--5
D-2--6--4--4-2-2--2--6--6
A-3--4--4--2-2-2--0--6--6
E-0--4--2--2-0-0--0--4--4


sol y luna hay 3 tipos para tocarla elijan

1
Intro: G#m - F# - C#m - G#m


G#m
Eres algo especial
F#
Una sensación indescriptible,
C#m
En las noches naufrago en tus sueños y mi mente
G#m
Se aleja de la razón.
G#m F#
Me has convertido en un ser inerte y de papel
C#m
Como esos sueños
G#m
Que nacen y se mueren al amanecer


Coro:
E F# D#m
Te llevaste mi vida y mi amor También,
E F# B F# G#m
Dejaste impregnado en mí tu aroma de mujer infiel,
G#m E F# G#m
No encuentro la manera de escapar de esta prisión
G#m E F#
Y nada mas volver a empezar

B F# F#
Déjame
G#m E F# G#m
En mi mente que ella vuela como una estrella marinal
G#m E F#
Que se pierde con los rallos de un sol...

Que vuelve a levantar...


G#m - F# - C#m - G#m


Tú... tan solo tú fuiste esa estrella
Que mis ojos vieron brillar
Cuando en mí vida todo era oscuridad
No hay nada o nadie
Quien pueda opacarte solo tú
Y cada instante te llevo dentro de mi corazón...

Coro
Te llevaste mi vida y mi amor También,
Dejas impregnado en mí tu aroma de mujer infiel,
No encuentro la manera de escapar de esta prisión
Y nada mas volver a empezar

Déjame
En mi mente que ella vuela como una estrella marinal
Que se pierde con los rallos de un sol
Que vuelve a levantar...

Solo
G#m - E - F# G#m - E F# x 2

Coro
Te llevaste mi vida y mi amor También,
Dejas impregnado en mí tu aroma de mujer infiel,
No encuentro la manera de escapar de esta prisión
Y nada mas volver a empezar

Déjame
En mi mente que ella vuela como una estrella marinal
Que se pierde con los rallos de un sol
Que vuelve a levantar...



2
intro

e|---------6--11---9-7-6-7-9-|--11-14-15/16--|--11-15/16------|
B|--2/4--7-------------------|---------------|----------------|
G|---------------------------|---------------|----------------|
D|---------------------------|---------------|----------------|
A|---------------------------|---------------|----------------|
E|---------------------------|---------------|----------------|

e|-10/11---10/11-|--------3-4--|
B|---------------|--3-2-3------|
G|---------------|-------------|
D|---------------|-------------|
A|---------------|-------------|
E|---------------|-------------|


que se pierde con los rayos del sol.
que vuelve a levantar.....

e|--7---7--9---9--11--|--11-7-6-7-9-11-9-7-6-7-4-|--8/9--8/9--|
B|----7------7--------|--------------------------|------------|
G|--------------------|--------------------------|------------|
D|--------------------|--------------------------|------------|
A|--------------------|--------------------------|------------|
E|--------------------|--------------------------|------------|

e|--7-9-11--|--11-14-16-19----|
B|----------|-----------------|
G|----------|-----------------|
D|----------|-----------------|
A|----------|-----------------|
E|----------|-----------------|

punteo final

e|--4--4--11/14-11--9-9/11-11-|--44--11-15-17----|
B|----------------------------|------------------|
G|----------------------------|------------------|
D|----------------------------|------------------|
A|----------------------------|------------------|
E|----------------------------|------------------|

3
la guitarra debe estar afinada en D#, pues ellos la tocan asi
originalmente.

Intro: Am - G - F - Am

I:
Am G
Eres algo especial, una sensación indescriptible.
F
en las noches naufrago en tus sueños
Am
y mi mente se aleja de la razón.
Am G
me has convertido en un ser inerte y de papel
F Am
como esos sueños que nacen y se mueren al amanecer.

Coro:
F G Em
Te llevaste mi vida y mi amor también.
F G C/G6 Am
dejaste impregnado en mi tu aroma de mujer infiel
F G
No encuentro la manera de escapar de esta prisión
Am F/G F G Am
y nada más volver a empezar. Dé-ja-me!
Am F G
Mi mente inquieta vuela como una estrella matinal
Am F G
que se pierde con los rayos de un sol
Am
que vuelve a levantar.

Intro (se tocan las notas del intro)

Am G
Tú, tan solo tú fuiste esa estrella
F
que mis ojos vieron brillar
Am
cuando en mi vida todo era oscuridad.
Am G
no hay nada o nadie quien pueda opacarte, solo tu
F Am
y a cada instante te llevo dentro de mi corazón.

Coro: (El coro se toca exactamente igual...)

Te llevaste mi vida y mi amor también.
dejaste impregnado en mi tu aroma de mujer infiel
No encuentro la manera de escapar de esta prisión
y nada más volver a empezar. Déjame!
Mi mente inquieta vuela como una estrella matinal
que se pierde con los rayos de un sol
que vuelve a levantar.
/*****************************************************************/


tu sombra en mi pared
El ritmo es el original en balada rock

a)
Sim Sol RE LA
Quisiera yo creer que todo fue real
sim Sol RE LA
Que me deseabas tanto como yo a ti
sim Sol RE LA
Quisiera yo pensar que el sueño sucedió
sim Sol RE La
Que la vida a veces pudiera sonreír.
sim Sol RE LA
Las voces callan en mi cabeza la obsesión
sim Sol RE LA
Es la batalla entre la locura y la razón
sim Sol RE LA
Pudiera soportar el peso del dolor
sim Sol RE LA
El látigo en mi espalda la daga en mi talón
Sim Sol RE LA
Mas no existe noción que pueda mesurar
Sim Sol RE LA
Cual es la herida que deja esta soledad
sim Sol RE LA
Lentamente caigo en la espiral del desamor
Sim Sol RE LA
La incertidumbre de un “tal vez” que no se dio.

CORO
mi DO Sol RE
Noo No quiero ver Tu sombra Mi pared
mi DO Sol RE
No quiero ser un recuerdo más en tu pasado ya lo ves
mi DO Sol RE
Es difícil..soportar esta vida si no estas

Mi DO Sol RE
Noo No quiero ver Tu sombra Mi pared.


MISMOS ACORDES
a)
Desnudo ante el papel escribo mi pesar
Llanto entre líneas que tu nunca escucharas.
La musa del dolor entro en mi corazón
Rapto mi alma y se robo toda su luz
Ya no hay tranquilidad solo el llanto y la fricción
Me estoy muriendo y vivo solo por oír tu voz.

CORO
Noo No quiero ver Tu sombra Mi pared
No quiero ser un recuerdo mas en tu pasado ya lo ves
Es difícil..soportar esta vida si no estas
Noo No quiero ver Tu sombra Mi pared

b)
mi DO Sol RE
Ohhh..ohhhh .. Ohhh..ohhhhh
mi DO Sol RE
Ohhh..ohhhh .. Ohhh..ohhhh
………

a)
Te ame más que a mi vida y esa fue mi realidad
Pero perdiste al fin porque me amaste por igual
CORO
Noo No quiero ver Tu sombra Mi pared
No quiero ser un recuerdo mas en tu pasado ya lo ves
Es difícil..soportar esta vida si no estas
Noo No quiero ver Tu sombra Mi pared (Bis ).

una sonrisa al atrdecer tambien son 4 formas de tocarla

1
Afinacion: Eb(MI Bemol)

Esta es la línea de la guitarra Líder.



00:00 00:07


------------------------15-14-15—15b------------------b15b------
--------------10s12--15-----------------------------------------
--------12-14---------------------------------------------------
--12h14---------------------------------------------------------
----------------------------------------------------------------
----------------------------------------------------------------


00:08

---------12-14-15-14-12-----------------------------------------
--s12-12----------------15-12-15s17—17v-------------------------
-------------------------------------------------7--9--7-7s-----
-------------------------------------------------7--9--7-7s-----
----------------------------------------------------------------
----------------------------------------------------------------


00:20 00:26

------------------------------15-12-15b-15b-15p12-15v-----------
--10b—-10p8-10b------------12-----------------------------------
---------------------------12-----------------------------------
----------------------------------------------------------------
----------------------------------------------------------------
----------------------------------------------------------------


00:33

--17b--17b--17b--17b--------17v------------12v------------------
----------------------------------------------------------------
----------------------------------------------------------------
----------------------------------------------------------------
----------------------------------------------------------------
----------------------------------------------------------------


00:40

--15p12---------------------------------------------------------
----------15-15p12----------------------------------------------
--------------------14-14p12----14p12---------------------------
-----------------------------14--------14p12-14v----------------
----------------------------------------------------------------
----------------------------------------------------------------

00:43

----------------------------------------------------------------
----------------------------------------------------------------
------------------------------12-14-16-14--16--14-12------------
--14---12-10---16---14-12--14------------------------12-14---12-
----------------------------------------------------------------
----------------------------------------------------------------

-----------------------------------------15-14-15-15b-15-14-----
-------------------------------10s12--15---------------------15-
-------------------------12-14----------------------------------
10---16---14-12----12h14----------------------------------------
----------------------------------------------------------------
----------------------------------------------------------------


01:05

-12vv----------------12--12--12--12-----------------------------
---------------------15b-15b-15b-15b------15v-------------------
----------------------------------------------------------------
----------------------------------------------------------------
----------------------------------------------------------------
----------------------------------------------------------------


01:11 01:18

-----15-12-17b-17b---17v---------------22b-22-20-19-------------
--12------------------------------------------------20v---------
--12------------------------------------------------------------
----------------------------------------------------------------
----------------------------------------------------------------
----------------------------------------------------------------


01:21

-----------------------------------------------------17-15------
--20--19---22-20-19----------------------------------17-15------
--------------------19-21v---------12-------14-------------16v--
-----------------------------12h14-12—12h14-14-12h14------------
----------------------------------------------------------------
----------------------------------------------------------------


----------------------------------------------------------------
----------------------------------------------------------------
------------------------------12-14-16-14--16--14-12------------
--14---12-10---16---14-12--14------------------------12-14---12-
----------------------------------------------------------------
----------------------------------------------------------------

-----------------------------------------15-14-15-15b-15-14--22b
-------------------------------10s12--15------------------------
-------------------------12-14----------------------------------
10---16---14-12----12h14----------------------------------------
----------------------------------------------------------------
----------------------------------------------------------------



Esta es toda la parte con guitarra limpia, espero que les sirva
como una buena guia,luego voy a subir el resto incluido el solo
que todavia no lo saco completo.


2
* (Intro y Estrofas)
** (¿¿Precoros??)
*** (Coro, Solo y Outro)
**** (Puente)

*Intro:
D#m - F# - C# - D#m - C#

*
D#m
No se el por que
F# C# D#m C#
Si queriendo dar no recibo nada,
D#m
Su voz se escapo
F# C#
Una gota de agua
D#m
En mi sala.


**
B C#
Y ahora dudo de mí
D#m
Propio instinto
B C#
Todo en ti es igual
A#m B
Pero soy distinto
C# D#m
Dispuesto a empezar


*La vi sonreír
Y pensé en un momento
Que la había hallado
Aposte a ganar
Y la mala suerte hecho los dados;

**Un frió de muerte
Sacudió mi espina
Me encontré de nuevo
En la misma esquina
F#
Queriendo morir.

***
D#m B
A veces es bueno sufrir
C# F# Fm D#m C#
Lo digo por que hoy me siento así
D#m B
Disfruta con mi dolor
G#m A#m
Y las notas de esta canción
D#m B
A veces es bueno llorar
C# F# Fm D#m C#
Limpiar lo negro que hay dentro de mí,
D#m B
Darle alas a este sentimiento
G#m A#m
Y dejarlo escapar.


*
Mentí al decir que mi corazón
Nunca había llorado
Crucé el lumbral
Que separa el mundo
De lo irreal

**
Me estoy ahogando en mí
Propio barro,
Jugando al rey he
Sido un lacayo
De la soledad


***
A veces es bueno sufrir
Lo digo por que hoy me siento así
Disfruta con mi dolor
Y las notas de esta canción
A veces es bueno llorar
Limpiar lo negro que hay
Dentro de mí,
Darle alas a este sentimiento
Y dejarlo escapar.

****
A#m B
No, no creas que estoy vencido
G#m A#m
De tus cenizas me levantare
F# B G#m
Y le arrancare un gemido al viento
A#m
Por ti.


***
Solo (Los Acordes Del Coro)
D#m - B - C# - F# - Fm - D#m - C#
D#m - B - G#m - A#m

*
Veras que al final
Nuestros caminos se encontraran
No habrá más dolor
Solo el recuerdo de algo fugaz

**Y como amigo me miraras
Otra vez
Una sonrisa al atardecer
Cuando muera el sol**

***
A veces es bueno sufrir
Lo digo por que hoy me siento así
Disfruta con mi dolor
Y las notas de esta canción
A veces es bueno llorar
Limpiar lo negro que hay
Dentro de mí,
Darle alas a este sentimiento
Y dejarlo escapar.

***Outro
Ohh, Ohh, Ohh, Ohh,
Ohh, Ohh, Ohh, Ohh,
A#m - C# - D#m
Ohh, Ohh, Ohh, Ohh,


Ya saben... hechenle oido a los cortes y al bajo


3
spero les sea facil d entender, y que les guste

LA afinacion que utilize es D#

Inro y estrofas:

-----------------0--|-------------------------|-----------3----------|
----------3---------|---3---------------------|-----------3--3-------|
--------------------|------0------0-----------|-----------------0----|
-------4------------|---------4------4--2--0--|-------0------------0-|
----2---------------|-------------------------|----2-----------------|
--0-----------------|-------------------------|-3--------------------|


----------------------|--------------------0--|------------------------|
----------3-----------|--------------3--------|--3---------------------|
--------------0-------|-----------------------|-----0------0-----------|
-------0--------0-----|---------4-------------|--------4------4--2--0--|
----2-------------2---|------2----------------|------------------------|
--0-------------------|---0-------------------|------------------------|
Repite todo el intro y los Versos junto con la guitarra
con la guitarra principal y la ritmica

Cuando entra el C(Do) en las estrofas la guitarra ritmica hace:

-----------------|----------------|----------------|--------------|
-----------------|----------------|----------------|--------------|
--------0--------|--------7-------|--------0-------|--------7-----|
-----4-----4-----|-----7-----0----|-----9-----9----|-----7-----0--|
--3--------------|--5-------------|--7-------------|--5-----------|
-----------------|----------------|----------------|--------------|

-----------------|----------------|------------4---|---------5--------7--|
-----------------|----------------|----------------|---------------------|
--------0--------|--------7-------|--------4-------|------5---------7----|
-----4-----4-----|-----7-----0----|-----4----------|----5---------7------|
--3--------------|--5-------------|--2-------------|--3---------5--------|
-----------------|----------------|----------------|---------------------|

-----------0---|
---------0-----|
-------0-------|
-----2---------|
---2-----------|
-0-------------|

I:
Em G D/F# Em
No se el porqué, si queriendo dar no recibo nada.
Em G D/F# Em
su voz se escapó, una gota de agua en mi Sahara.
C D Em D
y ahora dudo de mi propio instinto
C D Bm C D Em
todo en mi es igual pero soy distinto, dispuesto a empezar.

Em G D/F#
La vi sonreír y pensé en un momento que la había hallado.
Em G D/F#
aposté a ganar y la mala suerte echó los dados.
C D Em D
un frío de muerte sacudió mi espina
C D Bm C D Em
me encontré de nuevo en la misma esquina queriendo morir.

Coro:
Em C D G D/F# Em D Em
A veces es bueno sufrir, lo digo porque hoy me siento así,
Em C Am Bm
disfruto con mi dolor y las notas de esta canción.
Em C D G D/F# Em D Em
a veces es bueno llorar, limpiar lo negro que hay dentro de mi,
Em C Am Bm
darle alas a este sentimiento y dejarlo escapar.

(Las demas estrofas se tocan igua a la prmiera)

II:
Mentí al decir que mi corazón nunca había llorado.
crucé el umbral que separa al mundo de lo irreal.
me estoy ahogando en mi propio barro.
jugando al rey he sido un lacayo de la soledad.

Coro:
A veces es bueno sufrir, lo digo porque hoy me siento así,
disfruto con mi dolor y las notas de esta canción.
a veces es bueno llorar, limpiar lo negro que hay dentro de mi,
darle alas a este sentimiento y dejarlo escapar.

Cambio:
G6 C7M Asus2 Bsus2
No, no creas que estoy vencido, de tus cenizas me levantaré
G6 C7M Asus2 Bm
y le arrancare un gemido al viento por ti.

III:
Verás que al final nuestros caminos se encontraran.
no habrá más dolor, solo el recuerdo de algo fugaz.
y como amigo me mirarás otra vez
una sonrisa al atardecer, cuando muera el sol.

coro:
A veces es bueno sufrir, lo digo porque hoy me siento así,
disfruto con mi dolor y las notas de esta canción.
a veces es bueno llorar, limpiar lo negro que hay dentro de mi,
darle alas a este sentimiento y dejarlo escapar.

4
La afinacion esta en Eb

1...Eb
2...Bb
3...Gb
4...Db
5...Ab
6...Eb

* (Intro y Estrofas)
** (¿¿Precoros??)
*** (Coro, Solo y Outro)
**** (Puente)

*Intro:
Em - G - D - Em - D

*
Em
No se el por que
G D Em D
Si queriendo dar no recibo nada,
Em
Su voz se escapo
G D
Una gota de agua
Em
En mi sala.

**
C D
Y ahora dudo de mí
Em
Propio instinto
C D
Todo en ti es igual
Bm C
Pero soy distinto
D Em
Dispuesto a empezar

*La vi sonreír
Y pensé en un momento
Que la había hallado
Aposte a ganar
Y la mala suerte hecho los dados;

**Un frió de muerte
Sacudió mi espina
Me encontré de nuevo
En la misma esquina
G
Queriendo morir.

***
Em C
A veces es bueno sufrir
D G F#m Em D
Lo digo por que hoy me siento así
Em C
Disfruta con mi dolor
Am Bm
Y las notas de esta canción
Em C
A veces es bueno llorar
D G F#m Em D
Limpiar lo negro que hay dentro de mí,
Em C
Darle alas a este sentimiento
Am Bm
Y dejarlo escapar.


*
Mentí al decir que mi corazón
Nunca había llorado
Crucé el lumbral
Que separa el mundo
De lo irreal

**
Me estoy ahogando en mí
Propio barro,
Jugando al rey he
Sido un lacayo
De la soledad


***
A veces es bueno sufrir
Lo digo por que hoy me siento así
Disfruta con mi dolor
Y las notas de esta canción
A veces es bueno llorar
Limpiar lo negro que hay
Dentro de mí,
Darle alas a este sentimiento
Y dejarlo escapar.

****
Bm C
No, no creas que estoy vencido
Am Bm
De tus cenizas me levantare
G C Am
Y le arrancare un gemido al viento
Bm
Por ti.


***
Solo (Los Acordes Del Coro)
Em - C - D - G - F#m - Em - D
Em - C - Am - Bm

*
Veras que al final
Nuestros caminos se encontraran
No habrá más dolor
Solo el recuerdo de algo fugaz

**Y como amigo me miraras
Otra vez
Una sonrisa al atardecer
Cuando muera el sol**



***
A veces es bueno sufrir
Lo digo por que hoy me siento así
Disfruta con mi dolor
Y las notas de esta canción
A veces es bueno llorar
Limpiar lo negro que hay
Dentro de mí,
Darle alas a este sentimiento
Y dejarlo escapar.

***Outro
Ohh, Ohh, Ohh, Ohh,
Ohh, Ohh, Ohh, Ohh,
Bm - D - Em
Ohh, Ohh, Ohh, Ohh,

pero le cambie las notas ya
q la cancion esta en Eb y esta vercion suena mejor y
con la afinacion en bemol (♭) es mas facil tocarla


5 comentarios - a tocar guitarra con akash

@hudone
Probaste con el castellano?
@RICKYMOSCA +3
Mira bart este es un loquito
@KillerPhantom
mmmmm y el solo que tiene sol y luna? y las tres notas faltantes del intermedio? Copy-paste