El post que buscas se encuentra eliminado, pero este también te puede interesar

Mas punteos de guitarra para todos...!!!

Mas punteos de guitarra para todos...!!!

hola a todos de vuelta,en esta ocasión les dejo la segunda parte de lo que les habia prometido...


Primero antes que nada,les voy a enseñar algunas cosas elementales que tienen que tener en cuenta a la hora de tocar,que les tendria que aver dicho al principio pero se me escapo y pido disculpas por eso....bueno....

Como saber si la guitarra esta afinada..? Bueno, eso lo conseguimos tocando la primer cuerda(las cuerdas se leen de abajo para arriba). Entoces,tocamos la primera cuerda en el quinto espacio y tiene que sonar la nota la. si ustedes no tienen este sonido incorporado pueden escuchar algun punteo con alguna guitarra afinada y acordarselo, de eso se trata la afinacionacion a oido de que ustedes incorporen en sus oidos la musica y haci poder afinar.

Bueno,entonces la primera cuerda tiene que sonar a la- y seguimos haci:

Primera: tiene que sonar a la-
Segunda: ponemos el dedo en el 5 espacio y al mismo tiempo hacemos sonar la primer cuerda pero al aire y tienen que sonar iguales
Tercera: ponemos el dedo en el 4 espacio y al mismo tiempo hacemos sonar la 2 cuerda al aire y tienen que sonar iguales
Cuarta: ponemos el dedo en el 5 espacio y al mismo tiempo hacemos sonar la 3 cuerda al aire y tiene que sonar iguales
Quinta:ponemos el dedo en el 5 espacio y al mismo tiempo hacemos sonar la 4 cuerda al aire y tiene que sonar iguales
Sexta: ponemos el dedo en el 5 espacio y al mismo tiempo hacemos sonar la 5 cuerda al aire y tiene que sonar iguales.

Para agilizar los dedos recomiendo hacer algún punteo que abarque todas las cuerdas rapidamente les dejo un ejemplo
les pongo en tonice Sol, las pentatonicas menores y se trata
de seguirlas el modelo 1 de arriba abajo (grave a agudo) y empalmar
con el modelo 2 hacia arriba (agudo a grave),
luego el modelo 3 de arriba a abajo y asi sucesivamente hasta llegar
al modelo 5 q seria de arriba a abajo y repetirlo de abajo a arriba
y volver por el modelo 4, modelo 3 etc..

a ver:

(los numeros representan los dedos, y los q estan entre parentesis la tonica, en este caso Sol)

modelo 1
--------

o|-(1)-|----|-----|--4--|
o|--1--|----|-----|--4--|
o|--1--|----|--3--|-----|
o|--1--|----|-(3)-|-----|
o|--1--|----|--3--|-----|
o|-(1)-|----|-----|--4--|

modelo 2
--------

o|-----|--2--|-----|--4--|
o|-----|--2--|-----|--4--|
o|--1--|-----|--3--|-----|
o|-(1)-|-----|-----|--4--|
o|--1--|-----|-----|--4--|
o|-----|--2--|-----|--4--|

modelo 3
--------

o|-----|--1--|-----|--3--|-----|
o|-----|-(1)-|-----|-----|--4--|
o|--1--|-----|-----|--4--|-----|
o|-----|--2--|-----|--4--|-----|
o|-----|--2--|-----|-(4)-|-----|
o|-----|--2--|-----|--4--|-----|

modelo 4
--------

o|--1--|-----|-----|--4--|
o|-----|--2--|-----|--4--|
o|--1--|-----|-(3)-|-----|
o|--1--|-----|--3--|-----|
o|-(1)-|-----|-----|--4--|
o|--1--|-----|-----|--4--|

modelo 5
--------

o|-----|--2--|-----|-(4)-|
o|-----|--2--|-----|--4--|
o|-(1)-|-----|-----|--4--|
o|--1--|-----|-----|--4--|
o|-----|--2--|-----|--4--|
o|-----|--2--|-----|-(4)-|
guitarra

bueno,ahora les dejo algunos punteos...

Primer punteo: Cumbia: 7 lunas: Loco Corazon..

........
INTRO:
E/---------------------------------------------------------
A/---------------------------------------------------------
D/-------------7-----7---6---5-----------------------------
G/-----------7---5-----5---4---3---------------------------
B/--6-5-6-5-----------------------3-2-3—-5-6-8-6—-5-3-5----
E/---------------------------------------------------------

SIGUE ASI!!!

E/---------------------------------------------------------
A/---------------------------------------------------------
D/---------------------------------------------------------
G/--------------6—7------------------14----14---13---12----
B/--------6—5---------------------15----13----13---12— 11--
E/--5—3--------------13-12-13-12---------------------------

SIGUE ASI!!!

E/---------------------------------------------------------
A/---------------------------------------------------------
D/---------------------------------------------------------
G/--------------------------------------------6-7----------
B/---------------------------------------6-5---------------
E/--10-9-10—-12-13-15-13—12-10-12—--5-3--------------------


EMPIEZA A CANTAR!!!!

Rem Lam SOL#m
ESTOY LOCO LOCO CORAZON
Solm Sib Do
EMBRIAGADO ESTA DE TANTO AMARTE A TI
Rem Lam SOL#m 2 VECES
SUFRE SUFRE SUFRE DE PASION POR TI
Solm Sib Do
Y SOLO LE DAS TANTA INFIDELIDAD…

Rem Lam SOL#m
ES UNA CONDENA TÚ AMOR
Solm Sib Do
SOS INDIFERENTE CON MIS SENTIMIENTOS
Rem Lam SOL#m
ES UNA CONDENA TÚ AMOR
Solm Sib Do
CUANDO CALLA TU RISA A LOS CUATRO VIENTOS…




Rem Lam SOL#m
CADA DIA QUE PASA YO SUEÑO CON TU AMOR
Solm Sib Do
MARIPOSA HERMOSA VUELAS DE FLOR EN FLOR
Rem Lam SOL#m 2 VECES
AUNQUE YO NO QUIERA SIGO PENSANDO EN TI
Solm Sib Do
ESTE FUE EL DESTINO QUISO QUE SEA ASI…

Rem Lam SOL#m
ES UNA CONDENA TÚ AMOR
Solm Sib Do
SOS INDIFERENTE CON MIS SENTIMIENTOS
Rem Lam SOL#m
ES UNA CONDENA TÚ AMOR
Solm Sib Do
CUANDO CALLA TU RISA A LOS CUATRO VIENTOS…
facil

Segundo punteo: Rock : Rata blanca: Mujer amante...

VERSION ACUSTICA

Empieza tocando un acorde en LAm, hace unos
arpegios sobre el mismo y luego va el punteo:

e-------------------------------------------------
B-5-6-8-6-5---6-5-----5---------------------------
G-----------7-----7-5---7-5---7-5-----------------
D---------------------------9-----9-7-6-9---------
A-----------------------------------------7-(7)-7-
E-------------------------------------------------

e--------------------------------------------------------------------------------
B--------------------------------------------------------------------------------
G-------9-10-9-------------------------------------------------------------------
D-10-12--------12-10-9-----9-10-12-10-9-10-9-7-----5-----------5-----------------
A----------------------------------------------------8-7---7-8---8-7-5---3-2-5---
E------------------------------------------------------------------------------3-

Entra el violín con acompañamiento de LAm SOL LAm, haciendo:

e--------------------------------------------------
B---10--10-10-10--12-13-15--8-8-8--13-12-12-10-----
G-9------------------------------------------------ Violín
D--------------------------------------------------
A--------------------------------------------------
E-------------------------------------------------- /

e------7-8-7----------4-----4-----
B-9-10-------10-9-6-5---6-5---6-5-
G--------------------------------- Guitarra
D---------------------------------
A---------------------------------
E--------------------------------- /

e--------------------------------------------------
B---10--10-10-10--12-13-15--8-8-8--13-12-10--------
G-9------------------------------------------------ Violín
D--------------------------------------------------
A--------------------------------------------------
E-------------------------------------------------- /

e--------------------------------------------------
B--------------------------------------------------
G-------9-10-9-------9-------9--------------------- Guitarra
D-10-12--------12-10---12-10---12-10-9-10-12-10----
A--------------------------------------------------
E-------------------------------------------------- /

e-12-12-13-12--15-13-12-12--------------------------
B---------------------------15-13-12-13-15-15-13----
G--------------------------------------------------- Violín
D---------------------------------------------------
A---------------------------------------------------
E--------------------------------------------------- /

e-12-10--8--8-7-5-0--
B-13-12-10-----------
G-------------------- Guitarra
D--------------------
A--------------------
E-------------------- /

e-12-12-13-12--15-13-12-12--------------------------
B---------------------------15-13-12-10-9-10--------
G--------------------------------------------------- Violín
D---------------------------------------------------
A---------------------------------------------------
E--------------------------------------------------- /

e---------------
B---------------
G----------7-9--
D-7-9-10-9------
A---------------
E---------------

Lam Fa Sol
Siento el calor de toda tu piel en mi cuerpo otra vez
Lam Fa Do Sol
Estrella fugaz que enciende mi ser misteriosa mujer
Fa Lam
Con tu amor sensual cuanto me das?
Sol Rem Do
Haz que mi sueño sea una verdad
Fa Lam
Dame tu alma hoy, hacia el ritual
Sol Rem Sol
Llévame al mundo donde pueda soñar


Lam Do Sol Lam
Uh, debo saber si en verdad, en algún lado estas
Do Sol Lam riff1
Voy a buscar una señal, una canción

riff 1
e-----------
B-----------
G-----------
D-----------
A-0-2-3-2-0-
E-----------

Lam Do Sol Lam
Uh, debo saber si en verdad, en algún lado estas
Do Sol Lam Fa
Solo el amor que tu me das me ayudara aaaaaa....

e--------------------------------------------------
B---10--10-10-10--12-13-15--8-8-8--13-12-12-10-----
G-9------------------------------------------------ Violín
D--------------------------------------------------
A--------------------------------------------------
E-------------------------------------------------- /

e-----------------
B-----------------
G--------7----7-9- Guitarra
D-7-9-10---10-----
A-----------------
E----------------- /

e--------------------------------------------------
B---10--10-10-10--12-13-15--8-8-8--13-12-10--------
G-9------------------------------------------------ Violín
D--------------------------------------------------
A--------------------------------------------------
E-------------------------------------------------- /

e----------10----10/12-----
B-12-13-12----13-------10--
G-------------------------- Guitarra
D--------------------------
A--------------------------
E-------------------------- /

e-12-12-13-12--15-13-12-12--------------------------
B---------------------------15-13-12-13-15-15-13----
G--------------------------------------------------- Violín
D---------------------------------------------------
A---------------------------------------------------
E--------------------------------------------------- /

e-----------------------
B-----------------------
G-9-9(10)-9----5-5(7)-5- Guitarra
D-----------------------
A-----------------------
E----------------------- /

e-12-12-13-12--15-13-12-12--------------------------
B---------------------------15-13-12-10-9-10--------
G--------------------------------------------------- Violín
D---------------------------------------------------
A---------------------------------------------------
E--------------------------------------------------- /


Lam Fa Sol
Al amanecer tu imagen se va, misteriosa mujer
Lam Fa Do Sol
Dejaste en mi, lujuria total, hermosa y sensual
Fa Lam
Corazón sin Dios dame un lugar
Sol Rem Lam
En ese mundo tibio casi irreal
Fa Lam
Deberé buscar una señal
Sol Rem Sol
En aquel camino por el que vas.


Lam Do Sol Lam
Uh, debo saber si en verdad, en algún lado estas
Do Sol Lam riff 1
Voy a buscar una señal, una canción
Do Sol Lam
Uh, debo saber si en verdad, en algún lado estas
Do Sol Lam
Solo el amor que tu me das me ayudara.

Solo de guitarra

e--------------------------|-
B---10-12-13---13-12-10-12-|-
G-9------------------------|-
D--------------------------|-
A--------------------------|-
E--------------------------|-


Rem Lam
Tu presencia marco en mi vida el amor, lo se
Fa Lam
Es difícil pensar, el vivir ya sin vos.
Fa Lam
Corazón sin Dios dame un lugar
Sol Rem Fa Sol
En ese mundo tibio casi irreal

Lam Do Sol Lam
Uh, debo saber si en verdad, en algún lado estas
Do Sol Lam
Voy a buscar una señal, una canción
Do Sol Lam
Uh, debo saber si en verdad, en algún lado estas
Do Sol Lam
Solo el amor que tu me das me ayudara.
punteo

Tercer punteo: Folklore : Horacio Guarany: La Villerita...

MIm MI7 LAm RE SOL SI7
E|-------------0-4--0-4-7-5-8-8-------------5--7-7-3-5-6-7--
B|----------0-3-------------------------7--7--8-------------
G|---------1-------------------------5-7--7-----------------
D|--------2-----------------------4-7--------------5-7-8-9--
A|-------------------------------5--------------------------
E|-3-2-1-0-------------------------------------------------


MIm SI7
E|------7-| E|------5-|
B|------8-| B|------7-|
G|--------| ESTO G|--------| ESTO
D|-7~8~9--| 4 Veces D|-7~8~9--| 4 Veces
A|--------| A|--------|
E|--------| E|--------|


LAm SOL SI7 MIm
E|------7-----------------------------7-12--|
B|-------------10-----8------7-------8--12--|
G|----------------------------------9---12--|
D|-7~8~9--7~8~9--7~8~9--7~8~9--7~8~9--------|
A|------------------------------------------|
E|------------------------------------------|
taringa


Algunas yapas...

LA BAMBA!!!!!

---------------------------------------------------------------------------
---------------------------------------------------------------------------
-----------0--2-0----2-2-0------0--2-0----2-2-0---------------2-2-0--------
----------2--3------0------2---2--3------0-----2--2-0--2-0---0------2------
----0-2-3----------2---------3----------2--------3----3-----2--------------
---3--------------3--------------------3-------------------3---------------

C F G
BAMBA, BAMBA

C F G
BAMBA, BAMBA

C F G C F G
BAMBA, BAMBA

C F G
PARA BAILAR LA BAMBA

C
PARA BAILAR LA BAMBA

F G
SE NECESITA

C F G
UNA POCA DE GRACIA

C
UNA POCA DE GRACIA

F G
Y OTRA COSITA

C F G
AY ARRIBA Y ARRIBA

C
AY ARRIBA Y ARRIBA

F G
Y ARRIBA IRE

C F G
YO NO SOY MARINERO

C
YO NO SOY MARINERO

F G
SOY CAPITAN

F G
SOY CAPITAN


C F G
PARA SER MI CUNADO

C
PARA SER MI CUNADO

F G
SE NECESITA

C F G
QUE ME DES A TU HERMANA

C
QUE ME DES A TU HERMANA

F G
LA MAS BONITA

C F G
AY ARRIBA Y ARRIBA

C
AY ARRIBA Y ARRIBA

F G
Y ARRIBA IRE

C F G
YO NO SOY MARINERO

C
YO NO SOY MARINERO

F G
POR TI SERE

C
POR TI SERE

C F G
PARA SUBIR AL CIELO

C
PARA SUBIR AL CIELO

F G
SE NECESITA UNA ESCALERA GRANDE

C F G
UNA ESCALERA GRANDE

C
Y OTRA CHIQUITA

F G
AY ARRIBA Y ARRIBA

C F G
AY ARRIBA Y ARRIBA

C
Y ARRIBA IRE

F G
ARRIBA IRE

C F G
ARRIBA IRE

C F G
ARRIBA IRE

C F G
BAMBA, BAMBA

C F G
BAMBA, BAMBA

C F G
BAMBA, BAMBA


C F G
AY CUPIDO TE PIDO

C F G
AY CUPIDO TE PIDO DE COMPASION

C F G
QUE SE ACABE LA BAMBA

C
QUE SE ACABE LA BAMBA

F G
Y VENGA OTRO SON

C F G
AY ARRIBA Y ARRIBA

C
AY ARRIBA Y ARRIBA

F G
Y ARRIBA IRE

C
ARRIBA IRE

F G
ARRIBA IRE

C F G
BAMBA, BAMBA

C F G
BAMBA, BAMBA

C F G
BAMBA, BAMBA
7

BOB ESPONJA!!!!

vive en una piña debajo del mar...bob es-pon-ja...
------------------------------------------------------
------------------------------------------------------
-7-7-9-7-------7-7-9-7--------------------------------
---------9-------------9------------------------------
-----------10-----------------------------------------
------------------------------------------------------

su cuerpo absorbe y sin estallar.......bob es-pon-ja...
------------------------------------------------------
------------------------------------------------------
--12-12-14-12------------12-12-14-12------------------
---------------14--------------------14---------------
------------------15----------------------------------
------------------------------------------------------

el mejor amigo que podrias desear...bob es-pon-ja...
------------------------------------------------------
------------------------------------------------------
--7-7-9-7-------7-7-9-7-------------------------------
----------9-------------9-----------------------------
------------10----------------------------------------
------------------------------------------------------

y como a un pez le es facil flotar....bob es-pon-ja...
------------------------------------------------------
------------------------------------------------------
-12-12-14-12--------12-12-14-12-----------------------
-------------14-----------------14--------------------
----------------15------------------------------------
------------------------------------------------------

bob es-pon-ja bob es-pon-ja bob es-pon-ja
------------------------------------------------------
-8--5-----------8--5----------8--5--------------------
-------7--0-----------7--0----------7--0--------------
------------------------------------------------------
------------------------------------------------------
------------------------------------------------------

el es boooob....es-ponjaaaaaa JA JA JA
------------------------------------------------------
-3-3-5----------7--8-8--------------------------------
------------------------------------------------------
------------------------------------------------------
------------------------------------------------------
------------------------------------------------------

(silbido)
------------------------------------------------------
-8-10-12-10---12-8---8--------------------------------
-------------------7----------------------------------
------------------------------------------------------
------------------------------------------------------
------------------------------------------------------

Bueno eso es todo,comenten...!!!!! Nos veremos en la proxima!!!!!!

Punteos

Anuncios

3 comentarios - Mas punteos de guitarra para todos...!!!

@JoseXXXit0
De nada, borra el coment por favor un abrazo che