Tablaturas fáciles de guitarra

Tablaturas fáciles de guitarra


musica

Tablaturas

guitarra Espero que te guste

aprender Borro comentarios con malas intenciones

tluki

''Mi Enfermedad'' 

e-3-3-3-3-2-0---0---0------------I-----------0---I-3-3-3-3-2-0----0----0----------- 
B-----------------3---3----3-3------I--0-3-3----0|------------------3----3----3-3----- 
G--------------------------------------I----------------|--------------------------------------- 
D--------------------------------------I----------------|---------------------------------------- 
A--------------------------------------I-----------------|--------------------------------------- 
E--------------------------------------I-----------------|--------------------------------------- 



e-----3--5--3--0---I-3-3-3-3-2-0---0---0------I--3-2-----0--2-2-0------|--------0-0-0---0------ 
B--3-----------------I-----------------3---3---3-3----------3------------------|-0-0-1--------3----2-0 
G---------------------I------------------------------------------------------------|-------------------------- 
D---------------------I-------------------------------------------------------------|-------------------------- 
A---------------------I------------------------------------------------------------|--------------------------- 
E---------------------I------------------------------------------------------------|----------------------------

''Smoke on the water'' 

e-----------------------------I------------------------I 
B----------------------------I-------------------------| 
G-----------------------------I------------------------I 
D-----------------------------I------------------------I 
A-----1--3------1--4--3----I-------1-3-1---------I 
E--3----------3--------------I---3------------3-----I 

Ritmo de Rock n' Roll 

X2 X2 X2 
e------------------------I------------------------------I-----------------------------| 
B------------------------I------------------------------I-----------------------------| 
G------------------------I------------------------------I-----------------------------| 
D------------------------I---------------2-2-----------I----------------------------| 
A-------------2-2-------I--0-0--4-4--------4-4-----I---------------2-2---------| 
E--0-0-4-4------4-4--I------------------------------I---0-0--4-4--------4-4---| 


e---------------------------I------------------------I------- 
B---------------------------I------------------------I------ 
G---------------------------I------------------------I------ 
D-------------2-2----------I-----------------------I------- 
A-0-0-4-4-------4-4----I------------2-2-------I------ 
E---------------------------I--0-0-4-4------4-4-I---0--

Intro ''Sweet Child o' Mine'' 

e---------------------------15---------14-------------|---------------------------15---------14------------- 
B---------15-------------------------------------------|-------15--------------------------------------------- 
G-----------14---12---------14---------14---------|--------------14----12---------14---------14------ 
D---12-------------------------------------------------|----12--------------------------------------------------- 
A--------------------------------------------------------|------------------------------------------------------- 
E--------------------------------------------------------|------------------------------------------------------- 

e---------------------------15---------14-------------|---------------------------15---------14------------- 
B---------15-------------------------------------------|-------15--------------------------------------------- 
G-----------14---12---------14---------14---------|--------------14----12---------14---------14------ 
D---14-------------------------------------------------|----12--------------------------------------------------- 
A--------------------------------------------------------|------------------------------------------------------- 
E--------------------------------------------------------|------------------------------------------------------- 


e---------------------------15---------14-------------|---------------------------15---------14------------- 
B---------15-------------------------------------------|-------15--------------------------------------------- 
G---12---------14---12---------14---------14-----|--12--------14----12---------14---------14------ 
D--------------------------------------------------------|------------------------------------------------------- 
A--------------------------------------------------------|------------------------------------------------------- 
E--------------------------------------------------------|------------------------------------------------------- 

Repetir, menos ultima estrofa 

''Flaca'' 

e---------------------------|-----------------------------|----------------------------|-----------------|------------------------------------------| 
B-------3-1------------0-|-4--0----------------0-----|-5---0------------------0-|-3--1--1----0-|--3------------------0--3--0-------------| 
G-------------0--2--0----|--------0---2---0----------|---------0----2---0-------|-----------------|-------2---0---2-----------------2--0--| 
D---------------------------|-----------------------------|----------------------------|-----------------|----------------------------------------| 
A---------------------------|-----------------------------|----------------------------|-----------------|-----------------------------------------| 
E---------------------------|-----------------------------|----------------------------|-----------------|----------------------------------------| 

''Himno de la alegría'' 

e----0--0--1--3-|-3--1--0-----|------------0-|-0----------|0--0--1--3-|-3--1-0-----------------0-|------------|----------0---|-------0--1--0---|------ 
B------------------|------------3-|-1--1--3-----|-----3--3-|---------------|---------3--1--1--3-------|-3--1--1-|-3--3------1-|-3--------------1-|-3- 
G------------------|---------------|--------------|-------------|--------------|-----------------------------|------------|---------------|--------------------|--- 
D------------------|---------------|---------------|------------|---------------|-----------------------------|-----------|---------------|--------------------|---- 
A-------------------|--------------|---------------|------------|---------------|-----------------------------|-----------|----------------|-------------------|---- 
E-------------------|--------------|---------------|------------|---------------|-----------------------------|------------|---------------|-------------------|---- 

e---0--1--0----|------------0--------0---1---3--|---3---1---0-------|---------------0--|------------------------------ 
B-------------3-|-1---3----------------------------|-----------------3--|-1---1---3-------|-3---1--1------------------ 
G----------------|-----------------------------------|---------------------|-------------------|----------------------------- 
D----------------|-----------------------------------|---------------------|-------------------|----------------------------- 
A----------------|------------------------------------|--------------------|--------------------|---------------------------- 
E----------------|------------------------------------|--------------------|--------------------|----------------------------



Tablaturas fáciles de guitarra



musica

Comentarios Destacados

@vegita_01 +7
siempre me gusto la guitarra pero no entiendo un pomo nunca y termino por dejarla a la mierda

8 comentarios - Tablaturas fáciles de guitarra

@vegita_01 +7
siempre me gusto la guitarra pero no entiendo un pomo nunca y termino por dejarla a la mierda
@Kerosh +2
Muy bueno... acabe de empezar con esto de tocar guitarra... de todas me encanto el Intro ''Sweet Child o' Mine'' gracias
@Lucho_Metalero +2
El Himno a la Alegria lo tuve que tocar en show de invitado, porque no sabia que mierda le gustaba al publico
@marcelo_1997
Kerosh dijo:Muy bueno... acabe de empezar con esto de tocar guitarra... de todas me encanto el Intro ''Sweet Child o' Mine'' gracias

yo tambien recien estoy empezando y andaba buscando esta tablatura por todos lados