El post que buscas se encuentra eliminado, pero este también te puede interesar

Tabalatura facil (principiante) tab

Loss of Me
Final Fantasy IX

e----0-1-0-----------------
B--3----------------1-3----
G-----------------------3-2
D--------------------------
A--------------------------
E-------------------------- x2

e----0-1-3--3-5-3-1-0--0---0-1--------5-3-1-0--
B--3---------------------3--------------------1
G------------------------------3--3-2----------
D----------------------------------------------
A----------------------------------------------
E----------------------------------------------

e----0-1-3--3-5-3-1-0-------5-3-1-0-------0--
B--3------------------3-1-----------3-1-3---3
G-------------------------3------------------
D--------------------------------------------
A--------------------------------------------
E--------------------------------------------

Repeat parts 2 and 3

e--8--8--6-5--3-1--5-8--3-6-5-3-1
B--------------------------------
G--------------------------------
D--------------------------------
A--------------------------------
E--------------------------------

e--8--8--6-5--3-1--5-3----0-1-0
B-----------------------3------
G------------------------------
D------------------------------
A------------------------------
E------------------------------

e--8--8--6-5--3-1--5-8--3-6-5-3-1
B--------------------------------
G--------------------------------
D--------------------------------
A--------------------------------
E--------------------------------

e--5--5--3-1--0----1-0---0-4-0-4-5
B---------------3------3----------
G---------------------------------
D---------------------------------
A---------------------------------
E---------------------------------

Anuncios

0 comentarios - Tabalatura facil (principiante) tab