El post que buscas se encuentra eliminado, pero este también te puede interesar

El Padrino (Tablatura para Guitarra Criolla) [Facil]


El Padrino (Tablatura para Guitarra Criolla) [Facil]


Hola, les dejo esta tablatura de El Padrino (The Godfather)

Es re facil para que la toquen:

Espero que les guste:



e----------0--3--2--0--3--0--2--0------------------------------------
B------0-------------------------------1--3--0--------------------
G--------------------------------------------------------------
D----------------------------------------------------------
A------------------------------------------------------
E---------------------------------------------------


e----------0--3--2--0--3--0--2--0----------------------------------
B------0----------------------------------------------------------
G---------------------------------------3--2--1-------------
D----------------------------------------------------------
A------------------------------------------------------
E---------------------------------------------------


e----------------0--2-----------------------0------------------------
B-----------1------------------------1--4-----------------------
G------1------------------------2----------------------------
D----------------------------------------------------------
A-------------------------------------------------------
E---------------------------------------------------


e--------------------------------------------------------------------
B-----------0--3--1--0--3--2--1--4--5-----------------------
G------0------------------------------------------------------
D-----------------------------------------------------------
A-------------------------------------------------------
E--------------------------------------------------


e------0--0-----------------2--0----------------------------------
B-------------4--3-----------------1--0------------------------
G-------------------------------------------------------------
D-----------------------------------------------------------
A-------------------------------------------------------
E---------------------------------------------------

e--------------------------------------------------------------------
B------0--3--0----------------------1------0-------------------
G-----------------2-------------2-------2--------------------
D----------------------------------------------------------
A------------------------------------------------------
E--------------------------------------------------



guitarra

facil

Gracias por visitar mi post.

Anuncios

Comentarios Destacados

10 comentarios - El Padrino (Tablatura para Guitarra Criolla) [Facil]

@chuia +4
me viene bien para practicar tabs. Gracias
@miguel_mabylon +3
Me da ganas de llorar que recuerdos, hace 3 años atrás cuando tuve mi primera viola este tema fue el primer tema que me aprendí, cuando nadie daba 2 pesos a que tocaria la guitarra PTM como pasa el tiempo
@juamn01 +1
Gracias, deberías de seguir subiendo mas tablaturas, o mejor aun, un vídeo tutorial
@N1C0_007 +1
@juamn01 te prometo mas, cualquier cosa, guarda este link http://www.taringa.net/N1C0_007/posts y fijate cuando vaya subiendo nuevos, tengo muchos
@juamn01
@N1C0_007 ok, los espero con ansias.
@muser_21 +2
Suena mejor si lo tocas desde el traste 9
pero igual te dejo puntos
@TAMER_MASTER12 +1
tengo una pequeña duda dado que me enseñaron las cuerdas del 1 al 6 respectivamente de abajo hacia arriba como seria con letras?
@N1C0_007 +1
@TAMER_MASTER12 la E (mayuscula) seria la sexta cuerda (la mas grave), y la e seria la primera cuerda (la mas aguda)
@TAMER_MASTER12 +1
@N1C0_007 Gracias
@bubitis +1
solo que hay unas notas que no dan al sonido orginal pro la mayoria esta bien
@InfoInternet +1
MUY BUENA! LA IVA TOCANDO Y ME REIA, TE DEJARIA 10 PUNTOS PERO YA PUSE 5 HOY JAJAJAJA FELICIDADES MUY BUENA
@maatyxDD +1
Muy bueno! Me regalaron una guitarra ayer, no sé nada, pero aprendí este tema en 30 minutos más o menos, es muy bueno y me encanta, gracias! te dejo 10 puntos