El post que buscas se encuentra eliminado, pero este también te puede interesar

Tabs para guitarra acustica

Hola Sres. y Sras.

Espero que esten bien .



Aqui les he traido unas canciones para guitarra , algunas faciles otras un poco mas dificiles .

PERO!

la mayoria son para principiantes.

Ojo

estan probadas en guitarra acustica no en electrica

si , la guitarra acustica es esta :


Tabs para guitarra acustica


Bueno las tabs:

Tabs

---No hay persona que no pueda tocar esta tonada

La Pueden hacer con cualquier cuerda siguiendo este parton: (es solo el inicio de la canción)

|-0-3-5---0-3-6-5---0-3-5-3-0--------

pero si quieres que suene como la original tocala en las cuerdas 3 y 4

si sabes de musica te habras dado cuenta que es


Smoke on the wather de Deep purple

para que veas como suena


link: https://www.youtube.com/watch?v=zUwEIt9ez7M



guitarra


Esta es conocida

Sunshine of your Love - CREAM
e--------------------------------------------------------
B-------------------------------------------------------
G------------------------------------------------------
D------12--12---10---12---------------------------
A------------------------12--11--10------b8-------
E----------------------------------------10------10---

y suena asi.....



link: http://www.youtube.com/watch?v=IDZqmF3zS04

acustica





El Himno a la Alegria


e||-0--0--1--3-|-3--1--0----|----------0-|-0----------||
b||------------|----------3-|-1--1--3----|------3-----||
g||------------|------------|------------|------------||
d||------------|------------|------------|------------||
a||------------|------------|------------|------------||
E||------------|------------|------------|------------||


e||-0--0--1--3-|-3--1--0----|----------0-|------------||
b||------------|----------3-|-1--1--3----|-3----1-----||
g||------------|------------|------------|------------||
d||------------|------------|------------|------------||
a||------------|------------|------------|------------||
E||------------|------------|------------|------------||


e||-----0—-----|-0-1--0-----|-0-1—0------|------------||
b||-3-----1--3-|--------1--3|---------3--|1—3---------||
d||------------|------------|------------|---------0--||
g||------------|------------|------------|------------||
a||------------|------------|------------|------------||
E||------------|------------|------------|------------||


e||-0—-0—-1—-3-|-3--1--0----|----------0-|------------||
b||------------|----------3-|-1--1--3----|-3---1------||
d||------------|------------|------------|-------------------------||
g||------------|------------|------------|----------------------------||
a||------------|------------|------------|------------||
E||------------|------------|------------|------------||

simpsons


The Simpsons


1_-----0-2-5-3-0--------------------------------------
2_--1----------------1---------------------------0-2-2-2-3-
3_----------------------2---------0-----------0-------------
4_-------------------------4-4-4----4-4-4---------------



link: http://www.youtube.com/watch?v=DX1iplQQJTo

etc



El Feliz Cumpleaños

e--------------1-0--------------3-1---------8-5-1-1--0----------6-6-5-1-3--1-
B-1-1-3--1--------1-1-3-1--------1-1---------------------3--------------
G---------------------------------------------------------
D------------------------------------------------
A------------------------------------------------------------
E------------------------------------------------------------------


navidad


Californication - red hot chilipeppers

esta les va a costar un poco mas ya que tienen que saltar de el cuarto traste a el segundo

1--------------------
2-------0-1------
3---------------------0-2
4-----2-----------
5---0------------3-----
6-----------1 ------


link: http://www.youtube.com/watch?v=YlUKcNNmywk




ganzos rosas

LA CUCARACHA

e-0---0---0----5---9---0---0---0---5---9----5---5---4---4---2---2---0----0--0--0--5---7--0--0--0--5--7----12---14---12---10---8--7-5!!!
b---------------------------------------------------------------------------------------------
g------------------------------------- ------------------------------------------------------------
d-------------------------------------------------------------------------------------------------
a-------------------------------------------------------------------------------------------------
E-------------------------------------------------------------------------------------------------


caliornication



NAVIDAD
e-0-0-0--0-0-0--0-3----------0-------------
b--------------------------1-3---------------
g-------------------------------------
d-------------------------------------
a-------------------------------------
e-------------------------------------

e-1-1-1--1-0-0--0-------0------3-----------
b----------------------3-3------3-------------
g-------------------------------------
d-------------------------------------
a-------------------------------------
e-------------------------------------

e-0-0-0--0-0-0--0-3-------0-------------
b-------------------------1-3---------------
g-------------------------------------
d-------------------------------------
a-------------------------------------
e-------------------------------------

e-1-1-1--1-0-0--3-3-1----------
b------------------------------3-1---
g-------------------------------------
d-------------------------------------
a-------------------------------------
e-------------------------------------


sushine of love

El Padrino
e----9-12--11---9---12---9--11-9--------------------
b--9---------------------------------------10---12---9-------------------9---8---7
g----------------------------------------------------------------
d---------------------------------------------------------
a---------------------------------------------------------------
E------------------------------------




arroz con leche
e||---------0---------|----------0------|-0--1--0--------------|
B||------1-----1--1-|----1--1-----3-|----------3--1--0--0--|
G||·--0--------------|-0---------------|----------------------|
D||·------------------|------------------|----------------------|
A||-------------------|------------------|----------------------|
E||-----------------|---------------|----------------------|

e||-----------------|--------0----|--------0-----|
B||---------0--1--|-----1---1--|-----1-----3--|
G||---0--2-------|--0-----------|--0-----------|
D||------------- --|--------------|--------------|
A||----------------|--------------|--------------|
E||--------------- |--------------|--------------|

e||---0--1--0--------------|-------------------||
B||------------3--1--0--0--|--------0--1-------||
G||---------------------------|--0--2------------·||
D||---------------------------|------------------·||
A||---------------------------|-------------------||
E||---------------------------|-------------------||


sunsine of love actualizada



Eso fue todo amigos , cualquier duda comenten ,cualquiera
Tabs para guitarra acustica

Dudas reclamos o sugerencias en los comentarios

Anuncios

6 comentarios - Tabs para guitarra acustica

@kanixes +1
hola !! interesante muy interesante , estaría faltando el de bajo

te quiero dejar una pregunta, en visto unas guitarra acústicas que el mástil es mas largo de lo habitual . . .quisiera saber que modelos Para ver si las puedo comprar
@SebastianBaner
Emm... amigo... ojala no te ofendas pero esa es una guitarra española (tanbien conocida como criolla) no es una acustica... Buenos Tabs
@manuelahuenchur
sigo sin entender como se toca Sunshine of your Love - CREAM