El post que buscas se encuentra eliminado, pero este también te puede interesar

Canciones para guitarra y bajo. [Tabs]

Canciones para guitarra y bajo. [Tabs]

Hola,ahora les traigo un post con canciones para Bajo y Guitarra!Continuemos.

Primero que nada...

Las Tablaturas

La tablatura es una representación del brazo de la guitarra por medio de seis lineas dispuestas de manera horizontal representando las cuerdas de la guitarra.
A la izquierda, al principio de cada linea horizontal se colocan letras en cifrado americano que dicen las notas de cada cuerda. La cuerda mas aguda estara representada arriba de todo, es decir es la primera linea que se dibuja, en ocasiones la primera cuerda se dibuja con una "e" minúscula al lado.


e|-------------------------------------------------------------|
B|-------------------------------------------------------------|
G|-------------------------------------------------------------|
D|-------------------------------------------------------------|
A|-------------------------------------------------------------|
E|-------------------------------------------------------------|


Basicamente, la tablatura indica que nota se debe tocar en el lugar exacto (esta es la gran diferencia que existe con respecto a la partitura en donde uno debe deducir que digitación usar).Los numeros representaran el traste en el que esta ubicada la nota, en el caso de que diga 0 se tomará como una cuerda al aire.

Una tablatura puede verse mas o menos asi: -Las que les doy no son tan complicadas es un Ejemplo -


E----5----7--------------------------3-----7------------------
B----5----8---------------0-1------1-1-----5--------8--7-5-7--
G----5----7-------------2-----2----------5--------------------
D----7----9----7-9----2---------------------------------------
A----7----10--------0-----------0-----------------------------
E----5----7-----------------------------------8-7-------------


Al principio puede resultar bastante complicado pero la tablatura requiere mucha menos dedicación que la partitura. Observa que cuando hay varios numeros uno encima de otro (como en el ejemplo) indicara que deben tocarse al mismo tiempo, representando un acorde. El TAB debe leerse al igual que cualquier texto, de izquierda a derecha.



Bueno si se comieron ya todo el bajon de leer esto o si ya sabian es hora de...
Las Canciones!

Guitarra:

IRON MAN de Black Sabbath
G---------------------------------
D---------------------------------
A-2-5--5-7-7--109-109-109-5-5-7-7-
E--------------------------------- (x7)

G---------------------------------
D---------------------------------
A-----5---------------------------
E-7-7---7-7-6-555-04567----------- (x3)

G---------------------------------
D---------------------------------
A-2-5--5-7-7--109-109-109-5-5-7-7-
E--------------------------------- (x4)

G---------------------------------------
D-------------------789------------789--
A-7---5-----567-789--------567-789------
E--------77-------------77-------------- (x2)




FLACA de Andres Calamaro (intro)
e------------------------------------------------------------------
B--3-----------4------------5-----------3-1---3-----------4--------
G---4-2-0-2-4----4-2-0-2-4----4-2-0-2-4-----4---4-2-0-2-4---4-2-0--
D------------------------------------------------------------------
A------------------------------------------------------------------
E------------------------------------------------------------------

SUNSHINE OF YOUR LOVE de Cream
1:
e-------------------------------------------------
B-------------------------------------------------
G-------------------------------------------------
D------12--12---10---12---------------------------
A------------------------12--11--10------b8-------
E------------------------------------10------10---
2:
e-------------------------------------------------
B-------------------------------------------------
G------12--12---10---12---------------------------
D------------------------12--11--10------b8-------
A------------------------------------10------10---
E-------------------------------------------------



El Feliz Cumpleaños o El Payaso Plin Plin / SI... ES LA MISMA CANCION!
(grax por la correccion!)

e----------1-0---------3-1-----8-5-1-1--0---6-6-5-1-3--1-
B-1-1-3--1-----1-1-3-1-----1-1------------3--------------


INSPECTOR GADGET Muy divertida!
1|------------------------------------------
2|---------------------------------------3-2
3|----------------------------------4-3-----
4|------0-2-4--0-3---2-0------0-2-4---------
5|--2-4------------4-----2-4----------------
6|------------------------------------------


HUMO SOBRE EL AGUA de Deep Purple re facil!

La Pueden hacer con cualquier cuerda siguiendo este parton:

|-0-3-5---0-3-6-5---0-3-5-3-0--------

Suena muy Bien usando las cuerdas Nº 3 y 4 juntas!


SATISFACTION de los Rolling Stones


e-------------------------------------------------
B-------------------------------------------------
G-------------------------------------------------
D-------------------------------------------------
A-------------------------------------------------
E---2--2---2-4-5--555-4444------------------------

y asi se repite... (sirve cn cualquier cuerda)



Guns N' Roses - Sweet Child O' Mine gracias: parcel!
E|---------3--2------------3--2-------------------|
B|---3----------3----3----------3-----------------|
G|-----3-2--3----------3-2--3-------------------|
D|-0--------------0---------------0---------------|
A|--------------------------------------------------|
E|--------------------------------------------------|

Bajo:

Empezemos por algo facil:

Sunshine of your love-Creamintro:

G----------------------------------------/-------------------------------------------------
D---------------------------------------/-------------------------------------------------
A---7-7---5-7-----------------------/--------------------------------------------------
E----------------7-6-5-----0-3-0--/---------------------------------------------------

G------------------------------------------
D---7-7--5-7-----------------------------------
A---------------7-6-5-------------------------
E-----------------------7--10-7----------------

Smoke on the water-Deep purple

G----------------------------------------------------------------
D----------------------------------------------------------------
A---------------------------------------33-3-1------------------
E--33-33-33-33-33-33-33-33------------33-33-0-1-2-3

Un poquito mas dificil y mejor:

Money-pink floyd

G------4-----------------------4---------------------------4--------------------4--------------------------------------------------------------
D--------4-----------------------4---------------------------4--------------------4------------------4---4----------------4-3-2---------------
A--2------2------2-5----2-------2-----2-5--2---5-2------2-----2-5----2----2------2-5-2----------4--2-------4---------2-----------5-----2--
E------------2-5--------------------2-5--------5-2-------------2-5-----------------2-5-------------------------5------------------0-3--5---------

Stand by me-John lennon

G---5-5---4-5--5----5-4--2-2-----2-2---2-----------2--------------4-5-5---4-5-5-----4-5-5-------------------------------------------
D--------5--------------------------5----------5--3-3-3-----5--5---5---------5----------5-----------------------------------------------------
A---------------------------------------------------------------------------------------------------------------------------------------------
E--------------------------------------------------------------------------------------------------------------------------------------------

Iron man-Black Sabbath

G------------------------------------------------------
D--------------------------54-54-54-------------------------
A---------5----5---7-7---------------55--7--7--------------------
E-----7-----------------------------------------------

Ahora lo mejor y mas dificil:

Sweet child o'mine-guns and roses

G---------10-------10-11---13--15--13--11-10----------9------9-8---9-8------------------11-----------------11-10------
D--11----------11-------------------------------------11---9-------9-----9------9-------11-11------------11-11----------11-
A----------------------------------------------------------------------------------------9-----------------------------------------------
E--------------------------------------------------------------------------------------------------------------------

G----------------------------------------------------------------------------------------------------------------------------------------------------------
D------------------------------------6---------------------------------------3-2------------------------------------2-3-4------------------------
A---4----4-4----4----4-4------8---8--0----2--2-2----2---2-2----2--------4--2-------------------------------------0-2-3-4---4--4-4------
E-------------------------------------------------------------------------------------------3---3-3-----3----3-0-------------------------------------

My friend of misery-Metallica

G----10------10------10---14-------12------11-----------------------------
D-------12-------12-------------12------12-------12---------------------
A--0-------0--------0----------------0-------0----------0----------
E-----------------------------------------------

G------9---------9--------9--12------10-------9-------------------------------
D---------10-------10-----------10------10------10----------------------------
A----0--------0--------0------------0--------0--------0---------------
E-----------------------------------------------

Bueno eso fue todo, COMENTA,+10!!!

guitarra

bajo

bateria

Anuncios

7 comentarios - Canciones para guitarra y bajo. [Tabs]

@InvasorCorp +2
-----------------------------------------
3-3-0-0-0-7-0-0-0-0-3-0-0-7-0-0-3-0-0-5-0


----------5-5-7--------------------------
3-3-0-0-0-------0-0-3-0-0-7-0-0-3-0-0-5-0
@InvasorCorp
the god that failed es facil tambien
@GSEstudioCarlosA +2
Aquí les dejo un sitio con miles de tabs, pero estas tienen ritmo, y ademas al ir escuchando la canción no solo puedes ver la tab de la guitarra o el bajo, sino de todos los instrumentos, como el ritmo de bateria.

www.songsterr.com

cantante
@dekaserosfaakuii
Hola!,muchas gracias, ahora estare por ahí ya quiero ver *-*
@GSEstudioCarlosA +1
@dekaserosfaakuii ¿Porque me diste negativo?
@dekaserosfaakuii
@GSEstudioCarlosA Me equiboque -_-
@diegoskull2
sirve para real guitar de smartphone andrid
@Blaspinkf
0-3-8-2-7-1-5-6-9....a no.. ese es un teléfono de la rioja...
@END_2063
ay que frustracion mejor vendo el bajo y me compro una guitarra