El post que buscas se encuentra eliminado, pero este también te puede interesar

Punteos De Guitarra Para Principiantes + Leer Tabs

Anuncios

Hola Taringueros Les Traigo Unos Punteos Fáciles De Tocar En Guitarra Para Los Que Recién Empiezan. También Explicaré A Leer Tablaturas.Punteos De Guitarra Para Principiantes + Leer Tabs

Para Leer Tabs:

e|-------------------------------------------------------------| Mas Pequeña
B|-------------------------------------------------------------|
G|-------------------------------------------------------------|
D|-------------------------------------------------------------|
A|-------------------------------------------------------------|
E|-------------------------------------------------------------| La Mas Gorda



Bueno La Tablatura Indica La Nota O Notas Que Se Deben Tocar En El Momento Exacto Por Ejemplo:


e|------3-----------------------------------------------------
B|------3-----------------------------------------------------
G|------0-----------------------------------------------------
D|------0-----------------------------------------------------
A|------2-----------------------------------------------------
E|------3------------------------------------------------------

Como Se Puede Ver En La Tablatura Anterior Todas Los Numeros (Que Por Cierto Indica El Traste En El Cual Se Debe Tocar) Estan Alineados En La Misma Fila. Por Lo Tanto Eso Se Toca Al Mismo Tiempo Como Si Fuera Un Acorde.

e|--------3----------------------------------------------------------------3--
B|----------------3-----------------------------------------------------3-----
G|---------------------0-----------------------------------------0------------
D|---------------------------0----------------------------0-------------------
A|-----------------------------------2------------2---------------------------
E|------------------------------------------3----------------------------------
En Este Caso Se Toca Cada Nota Por Separado, No Como En El Anterior En El Cual Se
Tocaba Al Mismo Tiempo.

Las Tabs Pueden Variar Y Combinar Los Dos Casos Que Vimos.

Bueno Pasemos A Lo Divertido

Los Punteos!

In The End (Linkin Park)

e-----------------------------------------------------
b-----------------------------------------------------
g----3--3--------------------------------------------- x 4
d-1--------4--3--3--3--3--4--1------------------------
a-----------------------------------------------------
e----------------------------------------------------



Los Simpsons

1. -------------------------------------------------------------------------------------------------------------
2. -------------------------------------------------------------------------------------------------------------
3. ------------------------2-----0-----------------------------------------------------------------------------
4.------------2-----4------------------2-----------------------------------------------------------------------
5.-----3--------------------------------------3--0-------------------------------------------------------------
6.-------------------------------------------------------2-----2-----2-----3-----2-----2-----2-----3-----3---

Tan solo (Los Piojos)

1.------------------------------------10--------
2.---10---12---12---10---12------------------
3.------------------------------------------9----
4.------------------------------------------------
5.-----------------------------------------------
6.-----------------------------------------------


Como Ali (Los Piojos)

1.------------------------------------------------------1---0------------------
2.-----------------3-----------------3--------------------------1---3---------
3.---0---2---3-------0---2---3--------0---2---3-----------------------------
4.------------------------------------------------------------------------------
5.------------------------------------------------------------------------------
6.------------------------------------------------------------------------------

Caña Seca y un Membrillo (Patricio Rey y sus Redenditos de Ricota)

1.--------2-------------------------------------------3---------------
2.-------------3--------------------0------------0-------0-----------
3.------------------2----------0------------0-----------------0------
4.---0----------------------2---------------------------------------0--
5.-----------------------3--------------------------------------------
6.---------------------------------------3----------------------------

Persiana Americana (Soda Stereo)

1.------------3---2--------------------3---2---------------------3---2---------------
2.---1---3------------3---1---1---3----------3---1---1---3------------3---0--------
3.--------------------------------------------------------------------------------------
4.--------------------------------------------------------------------------------------
5.--------------------------------------------------------------------------------------
6.--------------------------------------------------------------------------------------

Aca Les Dejo Una Pagina Grosa Para Encontrar Punteos,Canciones,Acordes,Etc.
http://www.lacuerda.net
Punteos

Tambien Les Dejo Un Par De Canales De Youtube Que Explican Cosas De Guitarra
http://www.youtube.com/user/escuelaguitarra
http://www.youtube.com/user/christianvib

Estos Canales Son De Unos Genios Y Si Les Gusta El Folclore Acá Les Dejo El Canal De
Guitarreando Con Lucas
http://www.youtube.com/user/luksleproso

Pidan Punteos Y Luego Hago Una Segunda Parte De Este Post!
Espero Que Les Haya Servido Y A Puntear Se A Dicho!!


leer tabs

5 comentarios - Punteos De Guitarra Para Principiantes + Leer Tabs

@martin728
me podes buscar el punteo de la 25, solo voy

link: http://www.youtube.com/watch?v=miu0lVRFhdI
te dejo 5, si me pasas el punteo van 10
@MASTER0100
Aca Va Amigo El Link Del Punteo:
http://acordes.lacuerda.net/25/solo_voy.shtml
@martin728
@MASTER0100 sry te di negativo sin querer te dejo todo lo q puedo en puntos gracias
@MASTER0100
@martin728 Ok Genio, Gracias
@Mesalina131
Gracias por el aporte. Dejo puntos
@MASTER0100 +1
Gracias A Vos!