El post que buscas se encuentra eliminado, pero este también te puede interesar

Tabuladores para guitarra y canciones

Anuncios

Que son tabuladores?



Las tablaturas para guitarra son como una partitura que muestra la posición de los dedos en la guitarra, pero que no da datos de tonos ni duración de las notas. Asi que para tocar una canción a traves de una tablatura, la debes haber escuchado antes para conocer el ritmo y sonido de la guitarra.

CUERDAS: La guitarra tiene 6 cuerdas de distinto grosor, la más fina que esta abajo, es la denominada 1ª cuerda, la siguiente es la 2ª, y así hasta la 6ª que es la más gruesa.






Mi 1ra. ||---------|----------|----------|----------|---------|-
Si 2da. ||---------|----------|----------|----------|---------|-
Sol 3ra.||---------|----------|----------|----------|---------|-
Re 4ta. ||---------|----------|----------|----------|---------|-
La 5ta. ||---------|----------|----------|----------|---------|-
Mi 6ta. ||---------|----------|----------|----------|---------|-
......___/1 Traste . 2 Traste . 3 Traste . 4 Traste . 5 Traste





La tablatura se compone de seis líneas horizontales que representan las seis cuerdas de la guitarra.

e------------------------------primera cuerda
B-----------------------------segunda cuerda
G-----------------------------tercera cuerda
D-----------------------------cuarta cuerda
A-----------------------------quinta cuerda
E-----------------------------sexta cuerda



En estas líneas estaran unos números que muestran el traste que se tiene que pulsar:

e----1-------------------------
B------------------------------
G-------3----------------------
D----------5-------------------
A------------------------------
E------------------------------

Esto quiere decir que debes comenzar el punteo de guitarra pulsando la cuerda primera en el traste 1, después sigue la cuerda tercera en el traste 3, después sigues la cuerda cuarta en el traste 5.
Si encuentras un 0 en la tablatura te esta indicando que la cuerda hay que tocarla sin pulsarla.



Cuando en la tablatura hay unos números sobre otros, los tienes que tocar al mismo tiempo y cada uno en su traste. Esto se llamaria acorde y se define como: dos o más notas sonando al mismo tiempo.

e--2---------------------------primera cuerda
B--3---------------------------segunda cuerda
G------------------------------tercera cuerda
D------------------------------cuarta cuerda
A------------------------------quinta cuerda
E------------------------------sexta cuerda

En la tablatura de arriba hay dos notas una encima de otra, sin dejar espacio. Esto indica que hay que tocarlas a la vez. La primera cuerda de la guitarra pisada en el traste 2 y la segunda cuerda pisada en el traste 3, presionas las dos cuerdas a la vez en sus trastes correspondientes y las tocas al mismo tiempo.

Canciones faciles y conocidas


La cucaracha


e--------1-5--------1-5--1-1-0-0-----------------------
B--1-1-1------1-1-1--------------3-3-1-----------------
G------------------------------------------------------
D------------------------------------------------------
A------------------------------------------------------
E------------------------------------------------------


e--------0-3--------0-3--8-10-8-6-5-3-1----------------
B--1-1-1------1-1-1------------------------------------
G------------------------------------------------------
D------------------------------------------------------
A------------------------------------------------------
E------------------------------------------------------


e------1-1-5-5-8-5--8-10-8-6-5-8-6-3-------------------
B--1-1-------------------------------------------------
G------------------------------------------------------
D------------------------------------------------------
A------------------------------------------------------
E------------------------------------------------------


e------0-0-3-3-6-3--8-10-8-6-5-3-1---------------------
B--1-1-------------------------------------------------
G------------------------------------------------------
D------------------------------------------------------
A------------------------------------------------------
E------------------------------------------------------

Los simpsons


e. ------------------------------------------------------------
B. ------------------------------------------------------------
G -------------2--0--------------------------------------------
D. -----2--4---------2-----------------------------------------
A. --3--------------------3--0---------------------------------
E. ------------------------------2--2--2--3--2--2--2--3--3-----



e. ------------------------------------------------------------
B. ------------------------------------------------------------
G -------------------------------------------------------------
D. ------------------------------------------------------------
A. ---------------------------------3--3--3--3--3-3-3----------
E. --2--2--2--3--2--2--2--3--3---------------------------------


Las mañanitas



e--------------0------0-2-----0-2-3----3-3-2
b-----3---3-2-3---2-3-------3---------------
g-2-2---------------------------------------
d-------------------------------------------
a-------------------------------------------
e-------------------------------------------

e----0-----0-------0-2-3-0------------
b------3-2---3-2-3---------3----------
g-------------------------------------
d-------------------------------------
a-------------------------------------
e-------------------------------------



e-2-0-----0-2---2-0------0-2-------3--
b----3-2-3---3-----3-2-3-------3-3----
g-------------------------------------
d-------------------------------------
a-------------------------------------
e-------------------------------------


a---3-5-3-2-------0-2-3-0-------------
b----------3-2-3---------3------------
g-------------------------------------
d-------------------------------------
a-------------------------------------
e-------------------------------------



e--------------------------2-0--------
b---3----2-3-3--2-3-3----3-----3-2-3--
g-2-----------------------------------
d-------------------------------------
a-------------------------------------
e-------------------------------------



e0-0----0----0-0---0-0---0-3-2--2-0-0
b------2----3-----3------------------
g------------------------------------
d------------------------------------
a------------------------------------
e------------------------------------



e---------
b-2-3-3---
g---------
d---------
a---------
e---------


e----------------0-0---0-2-3---2-3-3-2-3----3-2-0
b--3-2---0-2---3---------------------------------
g------------------------------------------------
d------------------------------------------------
a------------------------------------------------
e------------------------------------------------


e---------0-2-2--2-3-2--2-0---------
b-3---2-3-----------------------2-3-
g-----------------------------------
d-----------------------------------
a-----------------------------------
e-----------------------------------

Estrellita donde estas

e-----------0-0--------------------------------
B------3-3-------3--------1-1--0-0-------------
G-0-0--------------------------------2-2--0----
D----------------------------------------------
A----------------------------------------------
E----------------------------------------------


e----------------------------------------------
B--3-3--1-1--0-0-------3-3--1-1--0-0-----------
G-----------------2-------------------2--------
D----------------------------------------------
A----------------------------------------------
E----------------------------------------------


e-----------0-0--------------------------------
B------3-3-------3--------1-1--0-0-------------
G-0-0--------------------------------2-2--0----
D----------------------------------------------
A----------------------------------------------
E----------------------------------------------

COMENTAR ES AGRADECER

7 comentarios - Tabuladores para guitarra y canciones

@locopepe1 +4
Por suerte ya pase esta etapa de la guitarra pero gracias!
@eddiez +3
gracias capo!!! segui asi!!!
@aldiabloconmipais +1
leonardo2314 dijo:y el cancionero??


es cierto aqui solo hay tablaturas u.u , ademas siempre las mismas de todos los post ( sin animos de ofender ) pero hay otros post con estas tabs y muchas mas , solo si te felicito por la explicacion de la lectura de tabs , hay pocos posts con eso +10 por ayudar a los novatos , yo no soy pro pero estos temas son una papa y estan buenos para empezar a agilizar los dedos , te sigo
@johann12 -1
Buena por la de estrellita donde estas, pa alfin dormir a mi primito Tabuladores para guitarra y canciones y dormir en paz Tablaturas