El post que buscas se encuentra eliminado, pero este también te puede interesar

acordes de canciones de HIllsong cristianas..

Anuncios

Este es mi Primer Post espero q les guste...!!!


Aqui les dejo algunos acordes de canciones de hillsong para guitarra...

Dsde Mi Interior
F C G
e ------------------12----------12------------------]
B ----------13--------------13------13--15--12------] (x4)
G --12--14------14------12----------------------12--]

F C G
Mil veces te falle, mas tu fuiste fiel
F G G
Tu gracia me levanto, me basta tu amor
Am F C G
Dios eterno tu luz por siempre brillara
Am F C G
Y tu gloria incomparable sin final

e ------------------12----------12------------------]
B ----------13--------------13------13--15--12------] (x2)
G --12--14------14------12----------------------12--]

F C G
Señor tu voluntad permanecera,
F C G
En ti me quiero perder en adoracion
Am F C G
Dios eterno tu luz por siempre brillara
Am F C G
Y tu gloria incomparable sin final

F C
De mi corazon te doy el control
Am G F
Consume todo mi interior, Dios
C G
Justicia y amor me abrazan señor
Dm F
Te amo desde mi interior

e ------------------12----------12------------------]
B ----------13--------------13------13--15--12------] (x2)
G --12--14------14------12----------------------12--]

Señor tu voluntad...................



Am F C G
//Dios eterno tu luz por siempre brillara
Am F C G
Y tu gloria incomparable sin final
C F G Am
El clamor de mi ser es contigo estar
F G F G
Desde mi interior mi alma clamara// Dios
F
e -------------------------------------------------------
B ----13-13-13-13-13-13-13-13-13-13-13-13-13-13-13-13----
G ---14-14-14-14-14-14-14-14-12-12-12-12-14-14-14-14-----
se sigue bien el teimpo ya sea de bajo o acustica
C
e --12-12-12-12-12-12-12-12-13-13-13-13-12-12-12-12----
B -13-13-13-13-13-13-13-13-13-13-13-13-13-13-13-13-----
G -----------------------------------------------------
Am G
e -------------------------------------------------------------
B --13--12--10--12--8---13--12--10--8----9---------------------
G -------------------------------------8---8--6--6/8---6-6/10--
D ---------------------------------------------------8---------
F
e --------------12-12-12-12-12-12-12-12-----
B -------------13-13-13-13-13-13-13-13------
G --13--12--10------------------------------
C
e --------------12-12-12-12-12-12-12-12-----
B -------------13-13-13-13-13-13-13-13------
G --13--12--10------------------------------
G Dm
e ----17-17-----17-17-----17-17-----17-17-----17-17-----19-19-19
B --15-----15-15-----15-15-----15-15-----15-15-----15-17--------
F C Am
De mi corazon te doy el control..............

justicia y amor

B -13-13-13-13-13-13-13-13-13-13-13-13-13-13-13-13---
G --14-14-14-14-14-14-14-14-12-12-12-12-14-14-14-14----

e --12-12-12-12-12-12-12-12-13-13-13-13-12-12-12-12----
B -13-13-13-13-13-13-13-13-13-13-13-13-13-13-13-13-----
G -----------------------------------------------------
Am
coro( dios eterno tu luz por siempre brillara(x2)

B --13--12--10--13--12--10--13--12--10--10/12--8--6---]

Tomalo

Intro/Verso - Guitarra 1
e|----------------------------14--14s16-|
B|--14-1414-12-1212-11-1111-12--12------|
G|--------------------------------------|
D|--------------------------------------|
A|--------------------------------------|
E|--------------------------------------|


Verso 1 - Guitarra 2
e|------------------------------------|
B|------------------------------------|
G|------------------------------------| este punteo lo hace el bajo
D|---------------------------1-1------| tambien
A|--2-2-2--2-2-2--2-2-2--1-1----------|
E|------------------------------------|

Coro
e|------------------------------------|
B|------------------------------------|
G|--4-4-4-4-4-4-4-4-------------------|
D|--4-4-4-4-4-4-4-4--4-4-4-4-4-4-4-4--|
A|--2-2-2-2-2-2-2-2--4-4-4-4-4-4-4-4--|
E|-------------------2-2-2-2-2-2-2-2--|

e|------------------------------------|
B|------------------------------------|
G|------------------------------------|
D|--6-6-6-6-6-6-6-6--2-2-2-2-2-2-2-2--| x 1
A|--6-6-6-6-6-6-6-6--2-2-2-2-2-2-2-2--|
E|--4-4-4-4-4-4-4-4--0-0-0-0-0-0-0-0--|

e|---------------------------------------|
B|---------------------------------------|
G|--4-4-4-4-4-4-4-4-------------------6--|
D|--4-4-4-4-4-4-4-4--4-4-4-4-4-4-4-4--6--|
A|--2-2-2-2-2-2-2-2--4-4-4-4-4-4-4-4--4--|
E|-------------------2-2-2-2-2-2-2-2-----|


Intro/Verso - Guitarra 1
e|----------------------------14--14s16-|
B|--14-1414-12-1212-11-1111-12--12------|
G|--------------------------------------|
D|--------------------------------------|
A|--------------------------------------|
E|--------------------------------------|


Verso 1 - Guitarra 2
e|------------------------------------|
B|------------------------------------|
G|------------------------------------|
D|---------------------------1-1------|
A|--2-2-2--2-2-2--2-2-2--1-1----------|
E|------------------------------------|



Coro x 2

Bridge 1
e|--------------------------------------|
B|--------------------------------------|
G|--------------------------------------|
D|--------------------------------------|
A|--22-44-66-77-------------------------|
E|--------------------------------------|

Bridge 2
e|------------------------------------------------------------------|
B|------------------------------------------------------------------|
G|--6-6-----------------------------6-6-----------------------------|
D|--6-6--6-6--4-4--2-2-2-2-2-2-2-2--6-6--6-6--4-4--2-2-2-2-2-2-2-2--|
A|--4-4--6-6--4-4--2-2-2-2-2-2-2-2--4-4--6-6--4-4--2-2-2-2-2-2-2-2--|
E|-------4-4--2-2--0-0-0-0-0-0-0-0-------4-4--2-2--0-0-0-0-0-0-0-0--|

e|-------------------------------------------------------------------|
B|-------------------------------------------------------------------|
G|--6-6----------------------------4-4-4-4-4-4-4-4--4-4-4-4-4-4-4-4--|
D|--6-6--6-6--4-4--2-2-2-2-2-2-2-2-4-4-4-4-4-4-4-4--4-4-4-4-4-4-4-4--|
A|--4-4--6-6--4-4--2-2-2-2-2-2-2-2-2-2-2-2-2-2-2-2--2-2-2-2-2-2-2-2--|
E|-------4-4--2-2--0-0-0-0-0-0-0-0-----------------------------------|

coro – x 2

final
e|-------------------------------------------------|
B|-------------------------------------------------|
G|--6--6--6--6---6--6--6--6---6-6-6-6-6-6-6-6---4--|
D|--6--6--6--6---6--6--6--6---6-6-6-6-6-6-6-6---4--|
A|--4--4--4--4---4--4--4--4---4-4-4-4-4-4-4-4---2--|
E|-------------------------------------------------|

Rey de Majestad

B
Sabes que te amo
G#m
Sabes que yo quiero
F#
Conocerte más
Em
Mucho más que antes

PUENTE: B, G#m, F# Em

B
Mis Palabras, son reales
G#m
Y no las invento
F#
Vivo para ti
Em
Yo me dedico a ti...

PUENTE: B, G#m, F#, Em


F# G#m F# G#m
Rey de majestad, tengo un deseo
F# G#m Em
Es estar contigo mi Señor
F# G#m Em
Es estar contigo mi Señor...


(Coro)
B G#m F# Em B G#m , F# , Em
Cristo eres el salvador de mi ser
B G#m F#
Y por siempre y siempre daré
Em B G#m F# Em, B
Mis alabanzas a ti...


Para que salga mejor la música se puede usar así los acordes:
B
E.......
B.......
G.......
D...9...
A...9...
E...7...
G#m
E.......
B.......
G.......
D...6...
A...6...
E...4...
F#
E.......
B.......
G.......
D...4...
A...4...
E...2...
Em
E.......
B.......
G.......
D...2...
A...2...
E...0...

Fuego de Dios

Tienen que bajarle ½ a la guitarra o sea en vez de ser
e-B-G-D-A-E lo dejan en eb-Bb-Gb-Db-Ab-Eb
Para que puedas tocar las notas que están abajo

Tono: F#

Intro: Gadd9 C

CORO
Gadd9 C
Porque se que vivo Estas
Gadd9 C
Me diste la Eternidad
Gadd9 C
Por siempre quiero alabar
Em7/G C
Tu nombre oh Dios Glorificar.

Verso: I

Gadd9
Me compraste con La sangre
C
Que diste en La cruz
D
Al morir crucificado por la humanidad
Gadd9
Ahora vivo estas en mí.
C
Con mis manos quiero servirte Jesús
Me acerco desesperado
D
Por ver Tu bondad
Gadd9
Mi alma descansara en Ti.
C Dadd11 C Dadd11
Jamás seré igual, jamás seré igual

CORO
Gadd9 C
Porque se que vivo Estas
Gadd9 C
Me diste la Eternidad
Gadd9 C
Por siempre quiero alabar
Em7/G C
Tu nombre oh Dios Glorificar.



Verso: II

Gadd9
Me has cambiado
C
Rompiste el muro que nos separaba
D
En ti soy bendito y camino en tu luz
Gadd9
La victoria yo tengo en Ti
C Dadd11 C Dadd11
Jamás seré igual, jamás seré igual

CORO
Gadd9 C
Porque se que vivo Estas
Gadd9 C
Me diste la Eternidad
Gadd9 C
Por siempre quiero alabar
Em7/G C
Tu nombre oh Dios Glorificar.



Puente:
Gadd9 C Em7/G
Fuego de Dios, Fuego de Dios
C Gadd9
Consúmenos, Te anhelamos (10 veces)

C Em7/G
Tu corazón yo quiero ver,
C Gadd9
Ven con Tu Gloria (7 veces)

Final:
Gadd9 C Em7/G
Fuego de Dios, Fuego de Dios
C Gadd9
Consúmenos, Te anhelamos (8 veces)




Acordes
Gadd9 = 300003 C = X32013 D = XX0232 Dadd11 = X54035 Em7/G = 322003

AMOR COMO FUEGO
Traducción oficial al español
(Love Like Fire)

Intro
E | E | C#m | C#m | B | A | E | E |

Verso 1
E
Anhelo un toque de tu amor
Sólo un destello
C#m
De tu gloria en mí, Señor
B
En un momento todo puedes transformar
A E| E
Mi vida has cambiado Dios

Verso 2 (Simile)
Y no alcanzo a comprender
Tu amor sostiene
Por completo hoy mi ser
Tu gracia y sangre
Que mi vida transformó
Borraste mi pasado Dios

PreCoro
C#m
Tu amor es como fuego
A E B
Que arde en mi interior
C#m
Mi único anhelo
A E
Rendirte adoración
B E
Con tu fuego lléname

Coro 1
E
Que tu amor me atraiga
B C#m
Al lugar donde tú estás
A E
Quiero más de ti Señor

Verso 3 (Simile)
Me rindo ante ti Jesús
Me entrego humilde
Ante el mensaje de la cruz
Y me abandono
En tu presencia y amor
Jamás seré igual oh Dios

acordes de canciones de HIllsong cristianas..

Coro 2 (Simile)
Que tu amor me atraiga
Al lugar donde tú estás
Quiero más de ti Señor
En la cruz hoy me rindo
Seguiré tu llamado Dios
Cristo pertenezco a ti

Instrumental
E| E| B| B|C#m|C#m|A|A|E|E|

Espero sus comentarios..!!!

Anuncios

3 comentarios - acordes de canciones de HIllsong cristianas..

william_dulon
aun no lo se peros i esta bueno eres un capo
SAULPK
me pueden enseñar a leer los acordes?