El post que buscas se encuentra eliminado, pero este también te puede interesar

Solo para ti- Acordes de guitarra

Anuncios

Bueno amigos aquí les dejo los acordes de una canción bastante fácil y divertido para toca Solo para ti de Camila. Esos acordes van dedicados "solo para mi" jeje, lamentablemente no encuentro mi media naranja, así que ando poniéndome mi media azul, la blanca jaja pero la naranja no la encuentro r
los acorde utilizados son los siguientes

Em7-------D-----------C9------------G------------Am-------------C

e--0------e--2---------e--0---------e--3----------e--0----------e--0
B--3------B--3---------B--3-------- B-(3)---------B--1----------B--1
G--0------G--2--------G--0---------G--0----------G--2-- -------G--0
D--2----- D--0--------D--2---------D--0----------D--2----------D--2
A--2----- A--0--------A--3---------A--2----------A--0----------A--3
E--0-------E--0------- E--0-------- E--3----------E--0----------E-(3)
NOTA:recuerden que los parentesis son opcionales

En la intro ocupan los mismos acordes pero tocan solamente algunas
cuerdas les voi a decir cuales son

en Em7 se tocan las cuerdas en este orden A,D,B,G en tablatura seria asi:

e-----------
B-----3-----
G--------0--
D---2-------
A-2---------
E-----------

en D ay una pequeña variacion las cuerdas son D,G,e,B y en tablatura
seria NOTA:no va ningun dedo en la primera cuerda

e------0-----
B---------3--
G---2--------
D-0----------
A------------
E------------

en C9 seria A,D,B,G en tablatura

e-----------
B------3----
G--------0--
D---2-------
A-3---------
E-----------

en GM seria E,A,B,D tienes que soltar las cuerdas de abajo solamente
lleva dos dedos

e-------------
B-------0-----
G----------0--
D-------------
A----2--------
E-3-----------

Em7 D
Eres todo lo que pedía
C9
Lo que mi alma vacía
G6
Quería sentir.


Em7 D
Eres lo que tanto esperaba
C9
Lo que en sueños buscaba
G
Y que en ti descubrí.

(aqui se coloca un pequeño adorno al final que seria asi)

e----------- tienen que ligar las primeras dos notas para que suene
G--2--0----- igual, presionen toquen y luego jalen que se forme
D--------0-- dos sonidos con un solo toque solamente en la cuerda G

la segunda parte es un poquito mas dificil pero solo al principioo
luego se vuelve muy sencillo la voi a escribie en tablatura


tuu has llegado a encender cada parte de mi alma cada parte de si ser

e-------3--------------0-----------------3------3--2------2--3---------
B---1-----1-----1--------3---------------3----3----3----3----3----3----
G-----0-------0------2-----2-------------0--0------2--2------0------0--
D---2-------2------0--------------------------------------------2------
A----------------------------------------------------------------------
E----------------------------------------3---------2---------0---------

ya no tengo corazon ni ojos para nadiee solo para ti

e------------------0---------------------------------------------
B--1------1-------------3----------------------3--------3--------
G-------0-------2----2-----2-0-0-0----------0--------0--------0--
D-----2------0-------------------------0-2--------2--------------
A--0--------------------------------3----------------------------
E----------------------------------------------------------------



(aqui esn esta parte comienza el rasgueooo puede ser un posible
rasqueo el siguiente

abajo, arriba,arriba,abajo,arriba,arriba i se repite

tambiem le pueden hacer un pequeño adorno pero es opcional
para darle un toque mas bonito

el el acorde D aganlo igual al de la intro sin el dedo en la primera
cuerda luego coloquenle el dedo en el traste numero 2 mas o menos
en las mitad calcula el tiempo

Em7 D
Eres el amor de mi vida
C9
El destino lo sabia
G
Y hoy te puso ante mí
Em7 D
Y cada vez que miro al pasado
C9
Es que entiendo que a tu lado
G
Siempre pertenecí


Am D
Tú has llegado a encender
G
Cada parte de mi alma
Em7
Cada espacio de mi ser
Am
Ya no tengo corazón
D
Ni ojos para nadie

C9
Solo para ti
Em7
Solo para ti
G
Solo para ti
Em7
Solo para ti

C9
Esto es de verdad
G
Lo puedo sentir
C9
Se que mi lugar
D C
Es junto a tiiiiiiiiii
Em7 C9 G
uuuuuuuuuu

(terminen la musica con el arpegio del intro)

Em7 D
Eres todo lo que pedía
C9
Lo que no conocía
G G
Y que en ti descubrí.......


(en el ultimo G toquen raguen las cuerdas de abajo hacia arriba
con la llema de sus dedos)
Bueno, suerte amigos, ESPERO QUE AYA SERVIDO DE ALGO Y PUEDAN CONQUISTAR ALGUNA CHICA JAJA...
ME SERVIRIA DE MUCHO Q COMENTEN AMIGOS, ES MI PRIMOSR POTS GRACIAS

Anuncios

11 comentarios - Solo para ti- Acordes de guitarra

@JUAN55551 +1
pasate por mis posts de guitarra
@frannku +1
buen post locoo
@Loc100
me gusta tu post. por las dudas no tendras las partituras.