Escalas De Blues - Parte 2

ESCALAS AVANZADAS DE BLUES




En esta leccion van a aparecer algunos terminos que sera necesario que conozcas para ejecutar la escalas, estos terminos son:

Slide: consiste en deslizar el dedo hasta la siguiente nota de la escala, el slide puede ser de una nota superior a inferior (6 a 4) o de una nota inferior a superior (4 a 6). En la escala el slide aparecera como una barra inclinada entre las 2 notas; por ejemplo si aparece en la escala algo asi como ---6----4--- significa que deberas de tocar el traste 6 de la cuerda que debas de tocar y despues SIN quitar el dedo de la cuerda deberas de desplazarte hasta el traste 4 de la cuerda. Los slides pueden empezar en cualquier traste y cuerda y acabar en cualquier traste y cuerda.

Choking:
consiste en "estirar" una cuerda hacia arriba y hacia abajo con el dedo que este pisando ese traste, con ello se consigue mantener el sonido de la nota y darle más cuerpo y mas fuerza a la escala. En la escala el choking aparecera como un signo > encima de la nota que debes de "estirar".



16.- Patrón

>
--------------------------------------------------------------------------------------9---------
----------------------------------------------------------------11---10---9---7-------------
---------------------------------------11---------11----9------------------------------------
--9----11---------------11---9-----------9------------------------------------------------
----------------10---9------------------------------------------------------------------------
------------------------------------------------------------------------------------------------
Un solo slide y un único choking.


17.- Patrón

> > > >
--------------------------------------------------------------2----4-----2----0--------
----------------------------------------------------2---0----------------------------------
-------------------------------------------2---0-------------------------------------------
--------------------------------2---0------------------------------------------------------
-----------------------3---0---------------------------------------------------------------
--3--3--3--3----0------------------------------------------------------------------------
Un par mas de slides y varios choking, como veras la escala es más completa y con más fuerza.




18.- Patrón

> >
-----------------------------------------------------------------------------------8---7---5---
---------------------------------------------------------7---6---5---5----7------------------
--7----------------------------7------7------7----5-------------------------------------------
------5----7----9---7---5-------5-------5----------------------------------------------------
-----------------9---7---5----------------------------------------------------------------------
-----------------9---7---5----------------------------------------------------------------------



Una escala diferente con cambios importantes. Lo esencial es que marques bien el choking en las notas y los grupos de 3 notas (999-777-555) puedes hacer un slide continuo desde el traste 7 pasando por los 3 grupos de notas quizás asi te sea más facil ejecutar esta escala.



19.- Patrón

>
-----------------------------------------------------------------------------------7---5---7-------------------7---5---7---
--------------------------------------------------------------------------7----5---------------5----7----5----------------
----------------------------------------------------------------7---4---------------------------------------------------------
-------------------------------------------------------7---4------------------------------------------------------------------
---------------------------------------------7---5----------------------------------------------------------------------------
----0--5----7--7--7--7--7--7--7--5-------------------------------------------------------------------------------------



El comienzo de esta escala es muy tipico en la mayoria de los temas blues, puedes hacer este este inicio en cualquier traste aunque recomiendo empezar en la cuerda más aguda (en la primera).



20.- Patron

>
-----------------------------------------------------------------------------------------------------------------------------
-----------------------------------------------------------------------------------------------------------------------------
-----------------------------------------------------------------------------------------------------------------------------
------------------------------------------------------------------------------------------------15---13---15-------------
--12----13----12----13----12----13----12----13----------------16---15---13----------------------------
--12----13----12----13----12----13----12----13----16---13-----------------------------------------------



> >
-----------------------------------------------------------16---13---11----13--------------------------
-----------------15--------------------15---14---13-----------------------------11--13--15---------
---15----13--------13---15---13----------------------------------------------------------------------
-------------------------------------------------------------------------------------------------------------
-------------------------------------------------------------------------------------------------------------
-------------------------------------------------------------------------------------------------------------

Con estas 5 lecciones ya tienes una base para poder empezar a improvisar tus propias escalas que es de lo que se trata: encontrar un estilo personal e intimo, como el blues.

21.- Patrón

> > > > > >
----------------------------------------------------------------------------------------------------------------------------
----------------------------------------------------------------------------------------------------------------------------
-----------------------------------------------------------------------------------19--------------------------------------
------------------------------------------------------------------19--17--19--------17--19--19--19--19--19-----
--------------------------------------------------20--19--17------------------------------------------------------------
-20--17--20--17--20--17--20--20--17----------------------------------------------------------------------------

>
------------------------------------------------------------------------------
------------------------------------------------------------------------------
--------------19-------------------------------19--17--19---------------
---19--17--------19----21----19--17--------------------------------
------------------------------------------------------------------------------
------------------------------------------------------------------------------



Una escala con fuerza y en trastes altos, precisamente su difultad está en tocarla correctamente en estos trastes, pero la verdad es que merece la pena. Como antes he dicho eres libre de modificarla e improvisar sobre ella para que encuentres el sonido que te guste.



22.- Patrón


> >

--5--8-------------------------------------------------------------------------------------------------------------------
---------5--6--7---------------------------------------------------------------------------------------------5--6--7--
-----------------------------------------------------------------------------7--5--7------------------------------------
--------------------------------5---7---7-----------------------------5------------------------------------------------
---------------------------------------------5---8-----------------------------------------------------------------------
--------------------------------------------------------------------------------------------------------------------------



23.- Patrón


>
--------------------------------------------------------3--1--3----------------------------------------------------------
------------------------------------------------3--1----------------------------------------------------------------------
-----------------------------------------3--0----------------------------------0--3--------------------------------------
----------------------------------------------------------------------------------------0--3------------------------------
----------------3--2--1----------------------------------------------------------------------1--2--3--------------------
--5----3--1--------------------------------------------------------------------------------------------0---3------------



24.- Patrón

>
---------------------------------------------------------------------------------------------------------10----------------
------------------------------------------------------------------------10--7-------------------------------7--8--9-----
---------------------------------------------------------------10--7------------------------------------------------------
----------------------------------------------------------------------------------------------------------------------------
----------------------------------10--8-----------------------------------------------------------------------------------
--10--8--10--8--10--10--8--------------------------------------------------------------------------------------------



25.- Patrón


> >
-------------------------------------------------------------------------------------------------------10----------
-----------------------------------------------------------------------------------12--11--10--8----------------
---------------------------------------------------------------------------------------------------------------------
-----------------------------------------12--10--12--------------------------------------------------------------
---------------------------------------------------------------------------------------------------------------------
--13--10--13-----------------------------------------------------------------------------------------------------



Como habrás podido ver los patrones 22, 23, 24 y 25 están incompletos, tienen unos saltos en la escala.. pues ahí entras vos en acción, he pensado que sería un buen ejercicio que completaras esos espacios con las notas que quieras y con efectos (slides, choking, repeticiones...).
Eso es todo acerca del blues, de ahora en adelante depende de ustedes en inprovisar y crear solos.


Parte 1


Octavio2011

0 comentarios - Escalas De Blues - Parte 2