Canciones faciles de guitarra

Anuncios

Bueno aca voy a dejar algunas canciones faciles para guitarra, si no saben como funciona el sistema de tablatura ahora se los explico
Por ejemplo tenemos esto

e|0------------------------------------------------------------|
B|--1----------------------------------------------------------|
G|---3---------------------------------------------------------|
D|----4--------------------------------------------------------|
A|------5------------------------------------------------------|
E|-------6-----------------------------------------------------|

Seria asi:
El 0 es cuerda al aire y el numero indica el numero de traste y las letras la nota de la cuerda al aire me imagino que saben las notas.

Como seguramente sabran lo que esta primero se toca primero y sigue lo que le sigue.

Si hay un numero arriba del otro se tocan a la misma ves formando un acorde.

Bueno aca las canciones!

Todas sirven con cualquier cuerda
Himno de la alegria
e|-7-7-8-10-10-8-7-5-3-3-5-7-7-5-5-7-7-8-10-10-8-7-5-3-3-5-7-5-3-3---------|
e|-5-7-3-5-7-8-7-3-5-7-8-7-5-3-5-10-7-7-5-5-7-7-8-10-10-8-7-5-3-3-5-7-5-3-3|

Plantita de aleli
e|-7-7-10-7-7-10-7-5-3-0-3-5-3-7| x2
e|-7-7-5-3-0-3-5-5-10-7-7-5-3-0-3-5-3-0| x2

Yo te quiero dar (La mosca)
e|-3-3-5-7-7-10-8-7-5-3-7-7-10-8-7-5-3-7-7-7-8-7-5-3-5
e|-5-5-7-8-8-8-8-8-10-8-8-7-7-7-7-8-7-7-5-5-7-5-3-5-10 x2
e|-3-3-5-7-7-5-3-3-3-3-7-5-3-5-5-5-8-7-5-8-5-5-5-5-5-5-3-5-7-0ç

Yellow Submarine - The beatles
e|-7-8-10-7-5-7-3-7-7-5-3-0-0-7-7-5
e|-10-10-10-0-5-5-5-5-5-3-3-3-3-3

Erase una vez
e|-8-8-7-5-3-5-5-7-8-7-5-3-7-7-7-5-7-5-3-3-3-5-7-5-3-1 x2

Descontrolado - Jovenes pordioseros
e|-3-3-5-7-5-3-7-7-7-7-7-7-5-5-5-5-5-5-5-7-5-3-3-3-3-3-3-5 x2
e|-0-7-7-5-3-0-3-5-0-7-7-5-3-3-0-7-7-5-3-0-3-5-10-10-10

Ojos azules
e|-7-7-10-5-7-3-3-5-7-7-5-2-5-0 x2
e|-3-3-0-0-3-5-7-3-5-7-7-5-2-5-0
e|-3-5-7-3-5-7-7-5-2-3-0

Mañana modifico y sigo esque las tengo en notas, no en tab. Y tengo que copiar muchas mas canciones.

Anuncios

20 comentarios - Canciones faciles de guitarra

naiqui
Muy bueno, gracias por el aporte
metalcobra
temaso el de jordan ajajaj, es re complicado, tiene una tecnica rara el qlia jaja
ramon12345
tambien esta chida la de sweet shild o mine de guns roses, pero es muy complicada.

viva slash!!!

ezex92
ramon12345 dijo:tambien esta chida la de sweet shild o mine de guns roses, pero es muy complicada.

viva slash!!!



no es nada complicada solo q tenes q tocarla con una electrica sino no suena
lalo1319 -1
ta facil sweet solo q cn acustica es imposible xq se toca a partir de traste 12 hasta el 15 y la acustica llega al 12
AlFo32k
si... facilisimas !!
gomzaa95
lalo1319 dijo:ta facil sweet solo q cn acustica es imposible xq se toca a partir de traste 12 hasta el 15 y la acustica llega al 12

pobre....