canciones romanticas en GUITARRA para novatos!

Anuncios

bueno este es mi primer post =)

para los que se hayan comprado la guitarra y la hayan dejado tirada por hay por no haberles salido nada bueno de ese nuevo pasatiempo o para los que recien empiesan en este hermoso vicio les dejo esto para ustedes con mucho amor! ,,



bueno,,como se nos hace dificil cuando apenas empesamos entender el temas de las notas i eso .. vamos a empesar a entender las tablaturas

son mucho mas faciles y se hacen con el tiempo las mas practicas ya que te acostumbras a leerlas muy rapidamente


canciones romanticas en GUITARRA para novatos!


bueno aca una explicacion completa y sencilla para entender las tablaturas



COMO APRENDER LEER TABLATURAS DE GUITARRA


Las tablaturas para guitarra son como una partitura que muestra la posición de los dedos en la guitarra, pero que no da datos de tonos ni duración de las notas. Asi que para tocar una canción a traves de una tablatura, la debes haber escuchado antes para conocer el ritmo y sonido de la guitarra.

En primer lugar, nos interesa saber el nombre de las partes que componen el mastil de la guitarra:

TRASTES: En el mástil se encuentran los trastes, que son las divisiones en que se divide.

CUERDAS: La guitarra tiene 6 cuerdas de distinto grosor, la más fina que esta abajo, es la denominada 1ª cuerda, la siguiente es la 2ª, y así hasta la 6ª que es la más gruesa.



Mastil de la guitarra

......---\
Mi 1ra. ||---------|----------|----------|----------|---------|-
Si 2da. ||---------|----------|----------|----------|---------|-
Sol 3ra.||---------|----------|----------|----------|---------|-
Re 4ta. ||---------|----------|----------|----------|---------|-
La 5ta. ||---------|----------|----------|----------|---------|-
Mi 6ta. ||---------|----------|----------|----------|---------|-
......___/1 Traste . 2 Traste . 3 Traste . 4 Traste . 5 Traste





La tablatura se compone de seis líneas horizontales que representan las seis cuerdas de la guitarra, la línea de arriba es la 1ª cuerda y la última línea es la 6ª:

e------------------------------primera cuerda
B-----------------------------segunda cuerda
G-----------------------------tercera cuerda
D-----------------------------cuarta cuerda
A-----------------------------quinta cuerda
E-----------------------------sexta cuerda



En estas líneas estaran unos números que muestran el traste que se tiene que pulsar:

e----1-------------------------
B------------------------------
G-------3----------------------
D----------5-------------------
A------------------------------
E------------------------------

Esto quiere decir que debes comenzar el punteo de guitarra pulsando la cuerda primera(e) en el traste 1, después sigue la cuerda tercera(G) en el traste 3, después sigues la cuerda cuarta(D) en el traste 5.
Si encuentras un 0 en la tablatura te esta indicando que la cuerda hay que tocarla sin pulsarla.



Cuando en la tablatura hay unos números sobre otros, los tienes que tocar al mismo tiempo y cada uno en su traste. Esto se llamaria acorde y se define como: dos o más notas sonando al mismo tiempo.

e--2---------------------------primera cuerda
B--3---------------------------segunda cuerda
G------------------------------tercera cuerda
D------------------------------cuarta cuerda
A------------------------------quinta cuerda
E------------------------------sexta cuerda

En la tablatura de arriba hay dos notas una encima de otra, sin dejar espacio. Esto indica que hay que tocarlas a la vez. La primera cuerda de la guitarra pisada en el traste 2 y la segunda cuerda pisada en el traste 3, presionas las dos cuerdas a la vez en sus trastes correspondientes y las tocas al mismo tiempo.

Tablaturas



bueno ahora si ya nos damos una idea de como se utiliza las tablaturas !!
(cabe aclara que hay muchos otros signos que se ponen en cada linea pero que por ahora no nos van a ser necesarios!!) tiempo al tiempo

guitarra


ahora les dejo unas canciones muy lindas que si no las conocen les rrecomiendo que las bajen o escuchen antes asi tienen una idea del ritmo , son sencillas y si le ponen paciencia y empeño en muy poquito tiempo les van a salir de 10 !



RIVER FLOWS IN YOU - yiruma


E||---5--4--5--4--5-----5-----|------------|---5--4--5--4--5-----5----|
B||------------------5-----3--|------------|------------------5-----3-|
G||---------------------------|--2---4-----|--------------------------|
D||---------------------------|------------|--------------------------|
A||---------------------------|------------|--------------------------|
e||---------------------------|------------|--------------------------|

E||-------------|--5--4--5--4--5-----5--------------------------------|
B||-------------|-----------------5------3----2--3--5-----2-----------|
G||--2---4------|--------------------------------------------4--------|
D||-------------|-----------------------------------------------------|
A||-------------|-----------------------------------------------------|
e||-------------|-----------------------------------------------------|

E||------------------------|------------------------------------------|
B||------------------------|--------5--------3---2---0----------------|
G||--2--1--2-----2--4--6---|-6--7-------------------------------------|
D||-----------2------------|------------------------------------------|
A||------------------------|------------------------------------------|
e||------------------------|------------------------------------------|

(optional)
E||-------------|--5--4--5--4--5-----5--------------------9---7-------|
B||-------------|-----------------5-----3----2---3--5------------------|
G||--2---4------|-----------------------------------------------------|
D||-------------|-----------------------------------------------------|
A||-------------|-----------------------------------------------------|
e||-------------|-----------------------------------------------------|

E||---9--7--5--4—-5--|------------------------------------|
B||------------------|--------------------5---------------|
G||------------------|--2--4--6----6--7--------7--6--4----|
D||------------------|------------------------------------|
A||------------------|------------------------------------|
e||------------------|------------------------------------|

E||--5--7--5--4—-5-----|--5--7--5--4--5------5--7--9--10--12--9--7--5—-4---|
B||-----------------5--|-----------------5---------------------------------|
G||--------------------|---------------------------------------------------|
D||--------------------|---------------------------------------------------|
A||--------------------|---------------------------------------------------|
e||--------------------|---------------------------------------------------|

E||--5--7--5--4—-5-----|--5--7--5--4--5------5--7--9--10--12--9--7--5—-4---|
B||-----------------5--|-----------------5--------------------------------|
G||--------------------|--------------------------------------------------|
D||--------------------|--------------------------------------------------|
A||--------------------|--------------------------------------------------|
e||--------------------|--------------------------------------------------|

E||--5—5--7--5--4—-5-----|-5--5--7--5--4--5------5--5--7--9--10--12--9--7—-5-—4--|
B||-------------------5--|-------------------5-----------------------------------|
G||----------------------|-------------------------------------------------------|
D||----------------------|-------------------------------------------------------|
A||----------------------|-------------------------------------------------------|
e||----------------------|-------------------------------------------------------|
E||--5—5--7--5--4—-5-----|-5--5--7--5--4--5------5--5--7--9--10--12--9--7--5—-4--|
B||-------------------5--|-------------------5-----------------------------------|
G||----------------------|-------------------------------------------------------|
D||----------------------|-------------------------------------------------------|
A||----------------------|-------------------------------------------------------|
e||----------------------|-------------------------------------------------------|


(optional)
E||-------------|--5--4--5--4--5-----5--------------------------------|
B||-------------|-----------------5------3----2--3--5-----2-----------|
G||--2---4------|--------------------------------------------4--------|
D||-------------|-----------------------------------------------------|
A||-------------|-----------------------------------------------------|
e||-------------|-----------------------------------------------------|

E||------------------------|------------------------------------------|
B||------------------------|--------5--------3---2---0----------------|
G||--2--1--2-----2--4--6---|-6--7-------------------------------------|
D||-----------2------------|------------------------------------------|
A||------------------------|------------------------------------------|
e||------------------------|------------------------------------------|

E||-------------|--5--4--5--4--5-----5--------------------9---7-------|
B||-------------|-----------------5------3----2--3--5-----------------|
G||--2---4------|-----------------------------------------------------|
D||-------------|-----------------------------------------------------|
A||-------------|-----------------------------------------------------|
e||-------------|-----------------------------------------------------|

E||---9--7--5--4—-5--|------------------------------------|
B||------------------|--------------------5---------------|
G||------------------|--2--4--6----6--7--------7--6--4----|
D||------------------|------------------------------------|
A||------------------|------------------------------------|
e||------------------|------------------------------------|


E||--5—5--7--5--4—-5-----|-5--5--7--5--4--5------5--5--7--9--10--12--9--7--5—-4--|
B||-------------------5--|-------------------5-----------------------------------|
G||----------------------|-------------------------------------------------------|
D||----------------------|-------------------------------------------------------|
A||----------------------|-------------------------------------------------------|
e||----------------------|-------------------------------------------------------|

E||--5—5--7--5--4—-5-----|-5--5--7--5--4--5------5--5--7--9--10--12--9--7--5—-4--|
B||-------------------5--|-------------------5-----------------------------------|
G||----------------------|-------------------------------------------------------|
D||----------------------|-------------------------------------------------------|
A||----------------------|-------------------------------------------------------|
e||----------------------|-------------------------------------------------------|

E||--5—5--7--5--4—-5-----|-5--5--7--5--4--5------5--5--7--9--10--12--9--7--5—-4--|
B||-------------------5--|-------------------5-----------------------------------|
G||----------------------|-------------------------------------------------------|
D||----------------------|-------------------------------------------------------|
A||----------------------|-------------------------------------------------------|
e||----------------------|-------------------------------------------------------|


BELLAS LULLABY -yiruma (si les gusto la peli crepusculo )

E||---5--4--5--4--5-----5-----|------------|---5--4--5--4--5-----5----|
B||------------------5-----3--|------------|------------------5-----3-|
G||---------------------------|--2---4-----|--------------------------|
D||---------------------------|------------|--------------------------|
A||---------------------------|------------|--------------------------|
e||---------------------------|------------|--------------------------|

E||-------------|--5--4--5--4--5-----5--------------------------------|
B||-------------|-----------------5------3----2--3--5-----2-----------|
G||--2---4------|--------------------------------------------4--------|
D||-------------|-----------------------------------------------------|
A||-------------|-----------------------------------------------------|
e||-------------|-----------------------------------------------------|

E||------------------------|------------------------------------------|
B||------------------------|--------5--------3---2---0----------------|
G||--2--1--2-----2--4--6---|-6--7-------------------------------------|
D||-----------2------------|------------------------------------------|
A||------------------------|------------------------------------------|
e||------------------------|------------------------------------------|

(optional)
E||-------------|--5--4--5--4--5-----5--------------------9---7-------|
B||-------------|-----------------5-----3----2---3--5------------------|
G||--2---4------|-----------------------------------------------------|
D||-------------|-----------------------------------------------------|
A||-------------|-----------------------------------------------------|
e||-------------|-----------------------------------------------------|

E||---9--7--5--4—-5--|------------------------------------|
B||------------------|--------------------5---------------|
G||------------------|--2--4--6----6--7--------7--6--4----|
D||------------------|------------------------------------|
A||------------------|------------------------------------|
e||------------------|------------------------------------|

E||--5--7--5--4—-5-----|--5--7--5--4--5------5--7--9--10--12--9--7--5—-4---|
B||-----------------5--|-----------------5---------------------------------|
G||--------------------|---------------------------------------------------|
D||--------------------|---------------------------------------------------|
A||--------------------|---------------------------------------------------|
e||--------------------|---------------------------------------------------|

E||--5--7--5--4—-5-----|--5--7--5--4--5------5--7--9--10--12--9--7--5—-4---|
B||-----------------5--|-----------------5--------------------------------|
G||--------------------|--------------------------------------------------|
D||--------------------|--------------------------------------------------|
A||--------------------|--------------------------------------------------|
e||--------------------|--------------------------------------------------|

E||--5—5--7--5--4—-5-----|-5--5--7--5--4--5------5--5--7--9--10--12--9--7—-5-—4--|
B||-------------------5--|-------------------5-----------------------------------|
G||----------------------|-------------------------------------------------------|
D||----------------------|-------------------------------------------------------|
A||----------------------|-------------------------------------------------------|
e||----------------------|-------------------------------------------------------|
E||--5—5--7--5--4—-5-----|-5--5--7--5--4--5------5--5--7--9--10--12--9--7--5—-4--|
B||-------------------5--|-------------------5-----------------------------------|
G||----------------------|-------------------------------------------------------|
D||----------------------|-------------------------------------------------------|
A||----------------------|-------------------------------------------------------|
e||----------------------|-------------------------------------------------------|


(optional)
E||-------------|--5--4--5--4--5-----5--------------------------------|
B||-------------|-----------------5------3----2--3--5-----2-----------|
G||--2---4------|--------------------------------------------4--------|
D||-------------|-----------------------------------------------------|
A||-------------|-----------------------------------------------------|
e||-------------|-----------------------------------------------------|

E||------------------------|------------------------------------------|
B||------------------------|--------5--------3---2---0----------------|
G||--2--1--2-----2--4--6---|-6--7-------------------------------------|
D||-----------2------------|------------------------------------------|
A||------------------------|------------------------------------------|
e||------------------------|------------------------------------------|

E||-------------|--5--4--5--4--5-----5--------------------9---7-------|
B||-------------|-----------------5------3----2--3--5-----------------|
G||--2---4------|-----------------------------------------------------|
D||-------------|-----------------------------------------------------|
A||-------------|-----------------------------------------------------|
e||-------------|-----------------------------------------------------|

E||---9--7--5--4—-5--|------------------------------------|
B||------------------|--------------------5---------------|
G||------------------|--2--4--6----6--7--------7--6--4----|
D||------------------|------------------------------------|
A||------------------|------------------------------------|
e||------------------|------------------------------------|


E||--5—5--7--5--4—-5-----|-5--5--7--5--4--5------5--5--7--9--10--12--9--7--5—-4--|
B||-------------------5--|-------------------5-----------------------------------|
G||----------------------|-------------------------------------------------------|
D||----------------------|-------------------------------------------------------|
A||----------------------|-------------------------------------------------------|
e||----------------------|-------------------------------------------------------|

E||--5—5--7--5--4—-5-----|-5--5--7--5--4--5------5--5--7--9--10--12--9--7--5—-4--|
B||-------------------5--|-------------------5-----------------------------------|
G||----------------------|-------------------------------------------------------|
D||----------------------|-------------------------------------------------------|
A||----------------------|-------------------------------------------------------|
e||----------------------|-------------------------------------------------------|

E||--5—5--7--5--4—-5-----|-5--5--7--5--4--5------5--5--7--9--10--12--9--7--5—-4--|
B||-------------------5--|-------------------5-----------------------------------|
G||----------------------|-------------------------------------------------------|
D||----------------------|-------------------------------------------------------|
A||----------------------|-------------------------------------------------------|
e||----------------------|-------------------------------------------------------|



KISS THE RAIN _ YIRUMA (mi preferida)



Intro:


E||---------------7-7------7---|---------------10-10-------10-----|
B||------8/10-10---------------|------8/10-10---------------------|
G||--7-----------------7-------|--7--------------------7----------|
D||----------------------------|----------------------------------|
A||----------------------------|----------------------------------|
E||----------------------------|----------------------------------|

------10/12---12/14--14/15--15--------|--17--19--17--15--14--15--14-------|
--10----------------------------12----|--~--------~------------------12---|
--------------------------------------|-----------------------------------|
--------------------------------------|-----------------------------------|
--------------------------------------|-----------------------------------|
--------------------------------------|-----------------------------------|


--15--14------------------------------------|-------------------------------|
--12--12---14-14---14/16--16-----16----16---|---14--12-12--14--10-----10----|
--------------12----------------------------|----------------------7--------|
--------------------------16--16----16------|-------------------------------|
--------------------------------------------|-------------------------------|
--------------------------------------------|-------------------------------|


-----------------------------|-------------------------------------|
--8--10--12--12/13------13---|---15--13--12------12---8--10--------|
--------------------12-------|---------------12--------------------|
-----------------------------|-------------------------------------|
-----------------------------|-------------------------------------|
-----------------------------|-------------------------------------|


-----------------7-7------7-----7---|---------------10-10-------10-----|
-----8--8/10-10--------------7------|------8/10-10---------------------|
--7-------------------7-------------|--7--------------------7----------|
------------------------------------|----------------------------------|
------------------------------------|----------------------------------|
------------------------------------|----------------------------------|


------10/12---12/14--14/15--15--------|--17--19--17--15--14--15--14-------|
--10----------------------------12----|--~--------~------------------12---|
--------------------------------------|-----------------------------------|
--------------------------------------|-----------------------------------|
--------------------------------------|-----------------------------------|
--------------------------------------|-----------------------------------|


--15--14------------------------------------|-------------------------------|
--12--12---15-15---15/17--17-----17----17---|---15--13-13--15--15------15---|
--------------12----------------------------|----------------------12-------|
--------------------------17--17----17------|-------------------------------|
--------------------------------------------|-------------------------------|
--------------------------------------------|-------------------------------|


------------------------------------------------------------|
--8--10--12--12/13---8--10--7--8-----8-----8----------------|
---------------------------------7-----7--------------------|
------------------------------------------------------------|
------------------------------------------------------------|
------------------------------------------------------------|


Verse:


-----7--10--12-----12----12----|------7--12--10---10---10------------|
--8----------------------------|---8------------8----8---------------|
----------------12----12-------|-------------------------------------|
-------------------------------|-------------------------------------|
-------------------------------|-------------------------------------|
-------------------------------|-------------------------------------|

-----7--10--8---7---5---3--5--7---7---7---|
--8-----------8---8-------------8---8-----|
------------------------------------------|
------------------------------------------|
------------------------------------------|
------------------------------------------|


-----7--10--12-----12----12----|---15--14--12--10---10---10--------|
--8------------10-----10-------|------------------8----8-----------|
-------------------------------|-----------------------------------|
-------------------------------|-----------------------------------|
-------------------------------|-----------------------------------|
-------------------------------|-----------------------------------|


--7h8/9-----8--7--8----8/10---10/12--14-15--19--17--------|
----------8---------8-------8-----------------------------|
----------------------------------------------------------|
----------------------------------------------------------|
----------------------------------------------------------|
----------------------------------------------------------|


Chorus I:


E||---------------7-7------7---|---------------10-10-------10----10---|
B||------8/10-10---------------|------8/10-10-----------------10------|
G||--7-----------------7-------|--7--------------------7--------------|
D||----------------------------|--------------------------------------|
A||----------------------------|--------------------------------------|
E||----------------------------|--------------------------------------|

------10/12---12/14--14/15--15--------|--17--19--17--15--14--15--14-------|
--10----------------------------12----|--~--------~------------------12---|
--------------------------------------|-----------------------------------|
--------------------------------------|-----------------------------------|
--------------------------------------|-----------------------------------|
--------------------------------------|-----------------------------------|


--15--14------------------------------------|-------------------------------|
--12--12---14-14---14/16--16-----16----16---|---14--12-12--14--10-----10----|
--------------12----------------------------|----------------------7--------|
--------------------------16--16----16------|-------------------------------|
--------------------------------------------|-------------------------------|
--------------------------------------------|-------------------------------|


-----------------------------|-------------------------------------|
--8--10--12--12/13------13---|---15--13--12------12---8--10--------|
--------------------12-------|---------------12--------------------|
-----------------------------|-------------------------------------|
-----------------------------|-------------------------------------|
-----------------------------|-------------------------------------|


-----------------7-7------7-----7---|---------------10-10-------10-----|
-----8--8/10-10--------------7------|------8/10-10---------------------|
--7-------------------7-------------|--7--------------------7----------|
------------------------------------|----------------------------------|
------------------------------------|----------------------------------|
------------------------------------|----------------------------------|


------10/12---12/14--14/15--15--------|--17--19--17--15--14--15--14-------|
--10----------------------------12----|--~--------~------------------12---|
--------------------------------------|-----------------------------------|
--------------------------------------|-----------------------------------|
--------------------------------------|-----------------------------------|
--------------------------------------|-----------------------------------|


--15--14------------------------------------|-------------------------------|
--12--12---15-15---15/17--17-----17----17---|---15--13-13--15--15------15---|
--------------12----------------------------|----------------------12-------|
--------------------------17--17----17------|-------------------------------|
--------------------------------------------|-------------------------------|
--------------------------------------------|-------------------------------|


------------------------------------------------------------|
--8--10--12--12/13---8--10--7--8-----8-----8----------------|
---------------------------------7-----7--------------------|
------------------------------------------------------------|
------------------------------------------------------------|
------------------------------------------------------------|


Repeat the verse tab then


Chorus II:

-----------------7-7------7-----7---|---------------10-10-------10-----|
-----8--8/10-10--------------7------|------8/10-10---------------------|
--7-------------------7-------------|--7--------------------7----------|
------------------------------------|----------------------------------|
------------------------------------|----------------------------------|
------------------------------------|----------------------------------|


------10/12---12/14--14/15--15--------|--17--19--17--15--14--15--14-------|
--10----------------------------12----|--~--------~------------------12---|
--------------------------------------|-----------------------------------|
--------------------------------------|-----------------------------------|
--------------------------------------|-----------------------------------|
--------------------------------------|-----------------------------------|


--15--14------------------------------------|-------------------------------|
--12--12---15-15---15/17--17-----17----17---|---15--13-13--15--15------15---|
--------------12----------------------------|----------------------12-------|
--------------------------17--17----17------|-------------------------------|
--------------------------------------------|-------------------------------|
--------------------------------------------|-------------------------------|


------------------------------------------|
--8--10--12--12/13---8--10--7--8-----8----|
---------------------------------7-----7--|
------------------------------------------|
------------------------------------------|
------------------------------------------|


Transition:


--------------------8-8------8-----8---|---------------11-11-------11-----|
--9---9--9/11-11----------------8------|------9/11-11---------------------|
----8--------------------8-------------|--8--------------------8----------|
---------------------------------------|----------------------------------|
---------------------------------------|----------------------------------|
---------------------------------------|----------------------------------|

------11/13---13/15--15/16--16--------|--18--20--18--16--15--16--15-------|
--11----------------------------13----|--~--------~------------------13---|
--------------------------------------|-----------------------------------|
--------------------------------------|-----------------------------------|
--------------------------------------|-----------------------------------|
--------------------------------------|-----------------------------------|


--16--15------------------------------------|-------------------------------|
--13--13---16-16---16/18--18-----18----18---|---16--14-14--16--16------16---|
--------------13----------------------------|----------------------13-------|
--------------------------18--18----18------|-------------------------------|
--------------------------------------------|-------------------------------|
--------------------------------------------|-------------------------------|

---------------------------------------------|
--9--11--13--13/14---9--11--8--9-----9---9---|
---------------------------------8-----8-----|
---------------------------------------------|
---------------------------------------------|
---------------------------------------------|

-------------------------------------------|
--9--11--13--13/14---9--11--8--9-----------|
-------------------------------------------|
-------------------------------------------|
-------------------------------------------|
-------------------------------------------|



y una un poquin mas complicada..

AUNQUE NO TE PUEDA VER - ALEX UBAGO


INTRO
e-----7-----5-4--------------4---------7--5--4-------------------------|
b-5-----7---------7-5----7-----7------------------7--5-----------------|
g----------------------------------------------------------------------|
D----------------------------------------------------------------------|
A----------------------------------------------------------------------|
E----------------------------------------------------------------------|

e---2------2---4--------4------------------------------|
b-----4-----------5---7--4--2/4---2-4---------------2--|
g-------4-----------4-----------------4---2-1-------2--|
D---------------------------------------------4-----2--|
A---2----------2------------------------------------0--|
E------------------------------------------------------|
I
Si ayer tuviste un día gris tranquila yo are
e--------------4--2---0---------------2---------0----------------|
b----------5-------------4---------4------5-4---2----------------|
g-------4----------------4------4---------------2----------------|
D--2--------------------------------------------2----------------|
A---------------------------2-------------------0----------------|
E----------------------------------------------------------------|

Canciones para sonreír ver si asi consigo hacerte sonreír
e-0------------------------------4---2---0------------2--------0-----|
b-2-----2---4----4------5------5------------4-------4---5—4-2--2-----|
g-2--2------4--4--------4---4---------------4-----4------------2-----|
D-2---------------------2--------------------------------------2-----|
A-0---------2---------------------------------2----------------0-----|
E--------------------------------------------------------------------|

Si lo que quieres es huir camina, yo are
e---7-5-4------|
B---7-5-4-7-5--|
g---------6-4--|

e--------------4--2---0------------------------2-----------0---|
b----------5--------------------4----------4-------5---4---2---|
g-------4-----------------------4------4-------------------2---|
D--2-------------------------------------------------------2---|
A-------------------------------2--------------------------0---|
E--------------------------------------------------------------|

Canciones para ver, si así consigo fuerzas pa`vivir
e-------0-----------------------------4---2---0---------------2--------0--|
B--2--------4------4--5---------5---------------4-------4-------5--4---2--|
g----2-----------4----------4-------------------4-----4----------------2--|
D--2--------4---------2------------------------------------------------2--|
A--------------------------------------------------2-------------------0--|
E-------------------------------------------------------------------------|
Pre-coro
E F#m7 G#m A
No tengo mas motivos parta darte que este miedo que me da a no volver a verte nunca mas

Coro
E G#m
Creo ver la lluvia caer en mi ventana te veo pero no esta lloviendo, no es mas que un
A B C#m B
reflejo de mi pensamiento, hoy te hecho de meno………s yo…
e---------------------|
b--4-5---4-5-7--------|
g-6-------------------|

e-4--
E G#m
Solo quiero hacerte saber amiga estés donde estés que si te falta el aliento yo te lo
A
daré….
B C#m B
Si te sientes sola háblame que te estaré escuchando
A B
Aun que no te pueda ver….r Aun que no te pueda ve….r

e----5--4--2-----------|
b------------5—5/7-----|
g--4-------------------|

En este solo las notas de la armonía son las mismas del coro.
Solo
e------4--4--4--4--4--4----2--2--2--4---7--7--7---7/7--7--7--11/12-11-------------|
b--------------------------------------------------------------------12-7/9-7---7-|
g-2/2--4--4--4--4--4--4----2--1--2--4---8--8--8---6/8--8--8-------------------9---|
D------2-------------------2--2--2------6-----------------------------------------|
A---------------------------------------------------------------------------------|
E---------------------------------------------------------------------------------|

e-------------------------|
b---5-7/9-7---7-----------|
g-6---------9-----9-8-----|
D--------------------9/11-|
A-------------------------|
E-------------------------|

II
De tantas cosas que perdí diría, que solo guardo lo que fue, mágico tiempo que nació un abril
E B A A B
E B A
e------------0------------0---0------------------------------------0-----------0-0-|
b---------0-----4------4------2------2------2-----4------------0------4------4---2-|
g-------1-------4----4--------2----2------2-----4------------1--------4----4-----2-|
D----2----------4--4----------2--2------2------4-----------2----------4--4-------2-|
A---------------2-------------0---------------------------------------2----------0-|
E--0-----------------------------------------------------0-------------------------|

Miradas tristes sobre mi se anidan y se hace..n

e--7-----5-----4-----------|
B--7-----5-----4--7------5-|
g-----------------6------4-|

e--------------4--2---0------------------------2------------0-----|
b----------5--------------------4----------4-------5---4----2-----|
g-------4-----------------------4------4--------------------2-----|
D--2--------------------------------------------------------2-----|
A-------------------------------2---------------------------0-----|
E-----------------------------------------------------------------|

Parte de mi piel, y ahora siempre llueve por que estoy sin ti
e-------------0------------------------------4----2---0---------------2--------0-|
B-2-----------------4------4--5---------5----------------4-------4--------5-4--2-|
g--------2---------------4----------4--------------------4-----4---------------2-|
D-2-----------------4---------2------------------------------------------------2-|
A----------------------------------------------------------2-------------------0-|
E--------------------------------------------------------------------------------|
Pre-coro
E F#m7 G#m A
No tengo mas motivos parta darte que este miedo que me da a no volver a verte nunca mas

Coro
E G#m
Creo ver la lluvia caer en mi ventana te veo pero no esta lloviendo, no es mas que un
A B C#m B
reflejo de mi pensamiento, hoy te hecho de meno………s yo…
e------------------|
b--4-5---4-5-7-----|
g-6----------------|

e-4--
E G#m
Solo quiero hacerte saber amiga estés donde estés que si te falta el aliento yo te lo
A
daré….
B C#m B
Si te sientes sola háblame que te estaré escuchando
A B
Aun que no te pueda ver….r Aun que no te pueda ve….r

e----5--4--2-----------|
b------------5—5/7-----|
g--4-------------------|
Solo
e------4--4--4--4--4--4----2--2--2--4---7--7--7---7/7--7--7--11/12-11-------------|
b--------------------------------------------------------------------12-7/9-7-----|
g-2/2--4--4--4--4--4--4----2--1--2--4---8--8--8---6/8--8--8-------------------9---|
D------2-------------------2--2--2------6-----------------------------------------|
A---------------------------------------------------------------------------------|
E---------------------------------------------------------------------------------|

e------4-5-4-------------------------------------|
b----5-------7--5-4-------4-5-7/9-7.------7------|
g--4----------------4/6.-6--------------8--------|
D-------------------------------------9----------|
A------------------------------------------------|
E------------------------------------------------|

e------4--4--4--4--4--4----2---2--2---4-----7--7--7---7/7--7--7---9-11-12-11-9---|
b----------------------------------------------------------------9---------------|
g-2/2--4--4--4--4--4--4----2---1--2---4-----8--8--8---6/8--8--8------------------|
D------2-------------------2---2--2---------6------------------------------------|
A--------------------------------------------------------------------------------|
E--------------------------------------------------------------------------------|

e--------------------------------4-----------------4-------------------|
b-12-10—9/10--------7/9-----5--7----------4--5--7----7-----------------|
g------------11--10-------6--------6----6---------------4--------------|
D----------------------------------------------------------------------|
A----------------------------------------------------------------------|
E----------------------------------------------------------------------|

e------4--4--4--4--4--4----2---2--2---4---------------|
b-----------------------------------------------------|
g-2/2--4--4--4--4--4--4----2---1--2---4-----4--4-4----|
D------2-------------------2---2--2-------4-----------|
A-----------------------------------------------------|
E-----------------------------------------------------|

e-----------------7-7/9--9-9-9-7-7------------------------|
b----------5-7-9--------------------------9-9-9-9-10-7----|
g------6-8---------------9-9-9-9-9----7-9-----------------|
D---6-------------------------------9---------------------|
A---------------------------------------------------------|
E---------------------------------------------------------|

novatos
BUENO ESPERO QUE LES HAYA GUSTADO.. mil besotes,, dejen comentarios acepto todo tipo de criticas constructivas en especial primeras nocionescanciones romanticas en GUITARRA para novatos!

Anuncios

20 comentarios - canciones romanticas en GUITARRA para novatos!

juanrulo
HEMMMM NO LO LEI TODO, POR QUE NO QUIERO EMPEZAR A TOCAR LA GUITARRA...PERO VI QUE ESTABA MUY COMPLETO Y COMO VI QUE PASASTE POR MI POSTY EN TU FOTO SOS ALGO GATO CON TODA LA BUENA ONDA...TE DEJO UN BUEN POST!!
POR QUE SOY NOVATO Y NO TENGO PUNTINES...SALUDOS
Uchiha2021
hola
muy bueno tu
post segui asi
Juanibrk
Hola muy buen post, aunque me gusta mas el metal y rock, algunos de estos temas me ayudaron,
Saludos anto
blancocristal +1
Buen post, no entiendo nada pero buen post igual !
Uchiha2021
tenes metroflog¿?contesta por M P (mensaje privado)
linds_lacey
kisses vida!!

manda un mp kn msn y flog..!

buen post...!
jaceka
genial hombre!
Wallt_Billy
BUENISIMO TU POST, JUSTO NECESITABA UN PAR DE PUNTEOS, ESTABA SACANDO "LOST WITHYOU" DE JOHN PETRUCCI, PERO NO ME SALE COMPLETO...
TE DEJO +10
luisandresl
HABER SI CON ESTO APRENDO Y CONQUISTO A UNA MUJER +10
Jokoyo
porsiacaso, el tinypic ya fue

THE_SHAGY
muy buen post recomendado y +10
rolan__king
buen post a favoritos y van puntos
mai26ar
Escribir un comentario...