canciones con acordes faciles

Anuncios

ANTES QUE TODO GRAN PARTE DE LAS COSAS LAS SAQUE DE WWW.TUSACORDES.NET

EMPEZAMOS CON FLACA DE ANDRES CALAMARO

intro
G-------------------------------------------------------------------------------
B--3-----------4------------5-----------3-1---3-----------4---------------------
G---4-2-0-2-4----4-2-0-2-4----4-2-0-2-4-----4---4-2-0-2-4---4-2-0---------------
D-------------------------------------------------------------------------------
A------------------------------------------------------------------------------
E-------------------------------------------------------------------------------


CORO

SOL Si
Flaca, no me claves
Mim Do
tus puñales, por la espalda
Sol Re
tan profundo, no me duelen
Sol Re
no me hacen mal

Lejos, en el centro
de la tierra, las raices
del amor, donde estaban
quedaran

ESTROFAS

SOL Si
Entre no me olvides me deje nuestros abriles
Mim Do
olvidados, en el fondo del placart
Sol Re
en el cuarto de invitados eran tiempos dorados
Sol Re
un pasado mejor

Aunque casi me equivoco y te digo poco a poco
no me mientas, no me digas la verdad
no te quedes callada no levantes la voz
ni me pidas perdon

Aunque casi te confieso yo tambien he sido un
perro compañero, un perro ideal
que aprendio a ladrar y a volver al hogar
para poder comer.

CORO

Se repite la introduccion y el punteo 2 veces, y luego:

e-------------------------------------------------------------------------------
B-----------3-----4---5-----------3-1---3---4-----------------------------------
G-0-0-0-2-4---4-----4---4-2-0-2-------4---4---4-2-0-----------------------------
D-------------------------------------------------------------------------------
A-------------------------------------------------------------------------------
E------------------------------------------------------------------------------

2 veces.
canciones con acordes faciles

ahora
DONT CRY de los GUNS N ROSES

Intro:Am | Dm | G | C
Am | Dm | G |Am |

Am Dm G C
Talk to me softly there`s - something in your eyes
Am Dm G C
Don`t hang your head in sorrow - and please don`t cry
Am Dm G C
I know how you feel inside I`ve - I`ve been there before
Am Dm G C Somethin`s changin` inside you - and don`t you know

F G Am
Don`t you cry tonight - I still love you baby
F G Am
Don`t you cry tonight
F G C Am G
Don`t you cry tonight - there`s a heaven above you baby
F G Am
and don`t you cry tonight

Am Dm G C
Give me a whisper - and give me a sigh
Am Dm G C
Give me a kiss before you - tell me goodbye
Am Dm G C [V:3 2 3 2 0]
Don`t you take it so hard now and please, don`t take it so bad
Am Dm G Am G
I`ll still be thinking of you - and the times we had ....................... baby

F G Am
And don`t you cry tonight
F G Am
Don`t you cry tonight
F G C Am G
Don`t you cry tonight - there`s a heaven above you baby
F G Am
and don`t you cry tonight
Solo de Guitarra
|------------------------------------------------------------------------|
|-------------------------------8---------------8------------------------|
|---7brp5h7---7br--5--7b-----7br5--7b----7br-5---------------------------|
|-----------------------------------------------------------7--5---------|
|------------------------------------------------------------------5br---|
|------------------------------------------------------------------------|

|------------------------------------------------------10b---8-----------|
|---------------------------------------------8h10--------------10-------|
|---------------------------5--5h7---7s9---------------------------------|
|----------------5h7--7--------------------------------------------------|
|--3-----5s7-------------------------------------------------------------|
|-----5------------------------------------------------------------------|

|-------------------------------------------------15--15--15-------------|
|-----------------------------------------15b*-----------------15rb--13--|
|--9---8---7h8p7---5---7---5---------------------------------------------|
|---------------------------------7---5----------------------------------|
|------------------------------------------------------------------------|
|------------------------------------------------------------------------|

|--------15--15--15----------------------------------------------13------|
|--15b*--------------15rb--13----------12--15--13--12----------------13--|
|----------------------------------13------------------13----------------|
|------------------------------14--------------------------14--15--------|
|------------------------------------------------------------------------|
|------------------------------------------------------------------------|

|------------------------------------------------------------------------|
|--15br---15br--13------------------------------------8------------------|
|-------------------------12b12b---9---6---7----------7b*----------------|
|------------------------------------------------------------------------|
|------------------------------------------------------------------------|
|------------------------------------------------------------------------|



Acompañamiento del punteo:
| Dm | F | G | Am G |
| F | G | Am | Am |

| F | G | E | F |
| F | G | Am

Dm G C Am
And please remember - that I never lied
Dm G C Am
and please remember - how I felt inside now honey
Dm G C Am
You gotta make it your own way - but you`ll be all right now sugar
Dm G C Am G
you feel better tomorrow - come the morning light now baby

F G Am
And don`t you cry tonight
F G Am
Don`t you cry tonight
F G C Am G
Don`t you cry tonight - there`s a heaven above you baby
F G F G
Don`t you cry - don`t you ever cry
F G E F
Don`t you cry tonight - baby maybe someday
F G F G
Don`t you cry - don`t you ever cry
F G C
Don`t you cry tonight
musica
WHATS UP DE NON blondies
Intro: A Bm D A [2X]

A
25 years of my life and still,
Bm D A
Tryin' to to get up that great big hill of hope, for a destination.
A
I realized quickly when I knew I should ,
Bm D
That the world was made up of this brotherhood of man,
A
For whatever that means.
A
And so I cry sometimes, when I'm lying in bed
Bm
Just to get it all out, what's in my head, then I,
D A
I am feeling, a little peculiar.
A
And so I wake in the morning, and I step outside
Bm
And I take a deep breath, and I get real high, and I,
D A
Scream from the top of my lungs, "What's going on?"

A Bm
And I say, "Hey yeah yeah hey, hey yeah yeah."
D A
I said, "Hey, what's going on?"
A Bm
And I say, "Hey yeah yeah hey, hey yeah yeah."
D A [A Bm D A] 2X
I said, "Hey, what's going on?"

A Bm D A
And I try, oh my God, do I try, I try all the time, in this institution.

A Bm D
And I pray, oh my God, do I pray, I pray every single day,
A
For a revolution.
A
And so I cry sometimes, when I'm lying in bed
Bm
Just to get it all out, what's in my head, then I,
D A
I Am feeling, A little peculiar.
A
And so I wake in the morning, and I step outside
Bm
And I take a deep breath, and I get real high, and
D A
I, scream from the top of my lungs, "What's going on?"

A Bm
And I say, "Hey yeah yeah hey, hey yeah yeah."
D A
I said, "Hey, what's going on?"

A Bm
And I say, "Hey yeah yeah hey, hey yeah yeah."
D A
I said, "Hey, what's going on?"

A Bm
And I say, "Hey yeah yeah hey, hey yeah yeah."
D A
I said, "Hey, what's going on?"

A Bm
And I say, "Hey yeah yeah hey, hey yeah yeah."
D A A Bm D A
I said, "Hey, what's going on?"

A Bm D
25 years of my life and still tryin' to get up that great big hill of hope,
A
For a destination.

guitarra
LA BALADA DEL DIABLO Y LA MUERTE DE LA RENGA

Mim Sol
Estaba el diablo mal parado
Re La
en la esquina de mi barrio
Mim Sol
Ahí donde dobla el viento
Re La
y se cruzan los atajos.

Mim Sol
Al lado de el estaba la muerte
Re La
con una botella en la mano,
Mim Sol
me miraban de reojo
Re La
y se reían por lo bajo.

Mim Sol
Y yo que esperaba no se a quien
Re La
al otro lado de la calle del otoño
Mim Sol
una noche de bufanda
Re La
que me encontró desvelado
Mim Sol
entre dientes, oí a la muerte
Re La Si
que decía, que decía así:
La Do
Cuantas veces se abra escapado
Sol Re
como laucha por tirante
La Do
y esta noche que no cuesta nada,
Sol Re
ni siquiera fatigarme

La Do
podemos llevarnos un cordero
Sol Re La
con solo cruzar la calle

Mim Sol
Yo me escondí tras la niebla
Re La
y mire al infinito
Mim Sol
a ver si llegaba ese
Re La
que nunca iba a venir.

Mim Sol
Estaba el diablo mal parado
Re La
en la esquina de mi barrio,
Mim Sol
al lado de el estaba la muerte
Re La
con una botella en la mano.


Solo

Mim Sol
Y temblando como una hoja
Re La
me cruce para encararlos
Mim Sol
y le dije, me parece que esta vez
Re La
me dejaron bien plantado

Mim Sol
Les pedí fuego y del bolsillo
Re La
saque una rama pa´convidarlos
Mim Sol
Y bajo un árbol del otoño
Re La
nos quedamos chamullando.

Mim Sol
Me contaron de sus vidas,
Re La
sus triunfos y sus fracasos
Mim Sol
de que el mundo estaba loco
Re La
y hasta el cielo fue comprado:
Mim Sol
y mas miedo que ellos dos
Re La - Si
me daba el propio ser humano

La Do
y yo ya no esperaba a nadie
Sol Re
y entre las risas del aquelarre
La Do
el diablo y la muerte
Sol Re
se me fueron amigando.

La Do
Ahí donde dobla el viento
Sol Re
y se cruzan los atajos.
La Do
Ahí donde brinda la vida
Sol Re
en la esquina de mi barrio.


[Mim - Sol - Re - La] X 4 Mim

LISTO ESTO ES TODO POR HOY

COMENTAR ES AGRADECER

POR FAVOR QUIERO SER NFU

Anuncios

22 comentarios - canciones con acordes faciles

mika_sp
balada del diablo y la muerte (L)
rulosprite
loco te fuiste al carajo, tocas re bien, abrazo!
Jose071
como es el Rasguido de la cancion flaca de andreS?
andresikooh
toca muy bien el pibe este, aver si me la aprendo yo tambien

jaajaja

buen post
Lvz_05
Hey men en la de What's Up es mas facil llevar el circulo A Bm D A en todo la cancion muy buen post!
Tesho77
Digamen como son los Rasguidos xD
sarasa321
Tesho77 dijo:Digamen como son los Rasguidos xD


Jose071 dijo:como es el Rasguido de la cancion flaca de andreS?

el rasguido de flaca (andres calamaro) es abajo abajo arriba arriba abajo
ReSiDeNtGoD
mika_sp dijo:balada del diablo y la muerte (L)

jaja ni hablar!
Gracias por los acordes de esta cancion ahora me los pongo a practicar
Ah y toma +10
SALUDOS
ReSiDeNtGoD
Che otra cosa como es el rasguido de La balada del Diablo y la muerte?
SALUDOS
andres1984luz
muy buena amigo!!!gracias por el aporte!!
faqcuervoxsiempre
sos nfu , yo te bia a dejar 10 por el juego . me anda y te los dejo en cualquier post
lucioco
faqcuervoxsiempre dijo:sos nfu , yo te bia a dejar 10 por el juego . me anda y te los dejo en cualquier post

te perdiste?? o me parece nomas??