Ejercicios para Aumentar la Velocidad con la Pua

Anuncios

Referencia de los ejercicios:


u upstroke (movimiento de púa hacia arriba)
d downstroke (movimiento de púa hacia abajo)

La digitación está puesta debajo de cada tablatura:

4: meñique
3: anular
2: medio
1: indice

Ejercicios a una sola cuerda:


Estos ejercicios se realizan en grupos de cuatro notas y en una misma cuerda, ideal para la sincronización entre la mano izquierda y derecha, puede ser practicado en cualquier cuerda, sobre todo empezad despacio. Podéis utilizarlo con los dedos de la mano izda que prefiráis, incluso con uno cada vez, lo importante en este ejercicio es la mano derecha.

Ejercicio 1:


d u d u d etc
|-0--0--0--0--3--3--3--3--4--4--4--4--7--7--7--7--8--8--8--8--11--11--11--11
|------------------------------------------------|--------------------------
|------------------------------------------------|--------------------------
|------------------------------------------------|--------------------------
|------------------------------------------------|--------------------------
|------------------------------------------------|--------------------------

-12--12--12--12--15--15--15--15--16--16--16--16--15--15--15--15--12--12--12
--------------------------------|-------------------------------------------
--------------------------------|-------------------------------------------
--------------------------------|-------------------------------------------
--------------------------------|-------------------------------------------
--------------------------------|-------------------------------------------

-12--11--11--11--11-8--8--8--8--7--7--7--7--4--4--4--4--3--3--3--3--||
--------------------|-----------------------------------------------------||
--------------------|-----------------------------------------------------||
--------------------|-----------------------------------------------------||
--------------------|-----------------------------------------------------||
--------------------|-----------------------------------------------------||


Ejercicio 2:


d u d u etc
|-4-3-2-1-5-4-3-2-6-5-4-3-5-4-3-2-|-6-5-4-3-7-6-5-4-8-7-6-5-7-6-5-4-|-8-7-6-
|---------------------------------|---------------------------------|-------
|---------------------------------|---------------------------------|-------
|---------------------------------|---------------------------------|-------
|---------------------------------|---------------------------------|-------
|---------------------------------|---------------------------------|-------
4 3 2 1 4 3 2 1 4 3 2 1 ....etc (digitación)

-5-9-8-7-6-10-9-8-7-9-8-7-6-|-10-9-8-7-11-10-9-8-12-11-10-9-11-10-9-8-||
----------------------------|-----------------------------------------||
----------------------------|-----------------------------------------||
----------------------------|-----------------------------------------||
----------------------------|-----------------------------------------||
----------------------------|-----------------------------------------||


Ejercicios a dos/tres cuerdas:


Aquí tenéis tres patrones distintos para atacar notas en dos cuerdas distintas, mantened las dos manos relajadas en todo momento, y ayudaros con el metrónomo para ir ganando velocidad:
Figura 1 (dificil) Figura 2 (fácil)

|----------------------------|| |-------------------------||
|---------------8------------|| |-------5--6--8--6--5-----||
|-----7--9--10-----10--9--7--|| |-5--7-----------------7--||
|-10-------------------------|| |-------------------------||
|----------------------------|| |-------------------------||
|----------------------------|| |-------------------------||
4 1 3 4 2 4 3 2 (digitación) 1 3 1 2 4 2 1 3(digitación)
Fig 3 (fácil)

|-------------------------||
|----------6--8--6--------||
|-5--7--9-----------9--7--||
|-------------------------||
|-------------------------||
|-------------------------||


1 3 4 2 4 2 4 3 (digitación)

Estos dos patrones trabajan la escala pentatónica, también a dos y tres cuerdas y siguiendo las mismas instrucciones que los anteriores

|-------------------------------------------------||
|-------------------------------------------------||
|-7--5--------7--5--------7--5--------7--5--------||
|-------7--5--------7--5--------7--5--------7--5--||
|-------------------------------------------------||
|-------------------------------------------------||

3 1 3 1 3 1 3 1...etc (digitación)

|-------------------------------------------------||
|-------------------------------------------------||
|----------5--7--5-----------------5--7--5--------||
|----5--7-----------7--5-----5--7-----------7--5--||
|-7-----------------------7-----------------------||
|-------------------------------------------------||
3 1 3 1 3 1 3 1...etc (digitación)


Ejercicios a múltiples cuerdas:


En este caso utilizamos la escala pentatónica por todas las cuerdas, seguid con la técnica de púa-contrapúa.

|------------------------------------------------|--------------------------
|------------------------------------------------|-------------5------------
|-------------------------------------5----------|-------5--7-----7--5------
|-------------5-----------------5--7-----7--5----|-5--7-----------------7---
|-------5--7-----7--5-----5--7-----------------7-|--------------------------
|-5--8-----------------8-------------------------|--------------------------

1 4 1 3 1 3 1 4 1 3 1 3 1 3...etc (digitación)

-------------5----------|-------5--8--5----------------------------------|
-------5--8-----8--5----|-5--8-----------8--5-----------5--8--5----------|
-5--7-----------------7-|----------------------7--5--7-----------7--5----|
------------------------|----------------------------------------------7-|
------------------------|------------------------------------------------|
------------------------|------------------------------------------------|

|------------------------------------------------||
|------------------------------------------------||
|-------5--7--5----------------------------------||
|-5--7-----------7--5-----------5--7--5----------||
|----------------------7--5--7-----------7--5----||
|----------------------------------------------8-||


Salto de Cuerda:


Salto de cuerda básico:


v = upstroke =Pua para abajo
^ = downstroke =Pua para arriba

v ^ v ^ v ^ v ^ etc.
e|-12-13-15-------------------------------|
B|-------------------12-14-15-------------|
G|----------12-13-15----------------------|
D|----------------------------12-14-15----|
A|----------------------------------------|
E|----------------------------------------|

e|----------------------------------------|
B|----------------------------------------|
G|-12-13-15-------------------------------|
D|-------------------12-13-15-------------|
A|----------12-14-15----------------------|
E|----------------------------12-13-15-12~|


Se habran fijado que este ejercicio utiliza escala disminuida, y con notas en bloques de tres para cada cuerda, podría decirse que este es uno de los saltos de cuerda más sencillos junto con los de pentatónica, este ejemplo utiliza bloques de dos notas sobre la escala pentatónica:


e|-15-12---------------------------------------------------------|
B|----------------12-15------------------------------------------|
G|--------14-12------------------14-12---------------------------|
D|------------------------14-12------------------14-12-----------|
A|-----------------------------------------14-12-----------------|
E|--------------------------------------------------------15-12--|


Uno de los maestros indiscutibles del String Skipping es Paul Gilbert, y aqui tenemos gran cantidad de ejercicios relacionados con esta técnica en su libro instruccional Terrifying Guitar Trip. A continuación un ejemplo de esta técnica por Paul Gilbert:


e|-10----------------10----------------10-|
B|----------------------------------------|
G|----14-11----11-14----11-14----11-14----|
D|----------12----------------12----------|
A|----------------------------------------|
E|----------------------------------------|


En cuanto a la ejecución, si eres primerizo en la técnica, lo mejor es que comiences usando la técnica púa-contrapúa (upstroke/downstroke) o con ligados, los más avanzados suelen combinar la técnica de los saltos de cuerda con los barridos (Sweep Picking + String Skipping).

Anuncios

8 comentarios - Ejercicios para Aumentar la Velocidad con la Pua

Don_Ale +1
Buen Post ... Vamos a Practicar un Rato con esto
28471326
BIEN ahi

si podes cuando postes tab's usa la fuente courrier
te queda todo alineado
Eureka123
+10 justo hoy estaba practicando un riff y necesitaba apurar un poco los dedos, muy buen post
Davies_P
acavo de ver esto en otra pagina