Tablaturas de solos faciles para guitarra

Anuncios

Bueno, aca mi primer post... hay muchas personas que buscan solos pero para los principiantes les cuesta mucho tocar, ese es el problema. Yo conozco varias canciones piolas y con solos fáciles

1_ El solo más fácil que conozco aunque no esta tan bueno cmo los demas. Nirvana- About a girl


|--------------------------------------|
|--------------------------------------|
|------------------9----------12-----|
|-------5-7-7-9-9-9-/12-12-12-| X 4
|---5-7-------------------------------|
|-0------------------------------------|

2_ Foghat- Slow ride


E|-5s3s5~~------------------------------5s3s5~~--------------------------------|
B|------------5s3s5~---------5-----------------------5s3s5~-----------5--------|
G|-------------------6s4s6~-----6b----------------------------6s4s6~----6b----|
D|------------------------------------------7~~------------------------------------7-|
A|---------------------------------------------------------------------------------------|
E|----------------------------------------------------------------------------------------|

E|----------------------5--------------------------------------------10--8--10b--8-----|
B|---------------------------------------------------------------10--------------------10-|
G|----6--7--8--9~---------7br-6b-------------6-7-8-9~----------------------------|
D|-7------------------------------------7~---7-------------------------------------------|
A|-------------------------------------------------------------------------------------------|
E|-------------------------------------------------------------------------------------------|

3- Si tenes una electrica, te vicias y en una semana lo sacás. Es solo la primera parte de un solo pk dsps es mucho mas complicado pero esta parte esta muy piola

Metallica- One

e|-t19p15p12-t19p15p12-t19p15p12-t19p15p12-t19p15p12-t19p15p12-t19p15p12t19p15p12--|
b|-----------------------------------------------------------------------------------------------------------------------------------
g|-----------------------------------------------------------------------------------------------------------------------------------
D|-----------------------------------------------------------------------------------------------------------------------------------
A|------------------------------------------------------------------------------------------------------------------------------------
E|------------------------------------------------------------------------------------------------------------------------------------

e|-t20p15p12-t20p15p12-t20p15p12-t20p15p12-t20p15p12-t20p15p12-t20p15p12t20p15p12--|
b|-----------------------------------------------------------------------
g|-----------------------------------------------------------------------
D|-----------------------------------------------------------------------
A|-----------------------------------------------------------------------
E|-----------------------------------------------------------------------


e|------------------------------------------------------------------------
b|-t19p15p12-t19p15p12-t19p15p12-t19p15p12-t19p15p12-t19p15p12-t19p15p12t19p15p12--|
g|------------------------------------------------------------------------
D|------------------------------------------------------------------------
A|------------------------------------------------------------------------
E|------------------------------------------------------------------------


e|------------------------------------------------------------------------
b|-t20p15p12-t20p15p12-t20p15p12-t20p15p12-t20p15p12-t20p15p12-t20p15p12-t20p15p12--|
g|------------------------------------------------------------------------
D|------------------------------------------------------------------------
A|------------------------------------------------------------------------
E|------------------------------------------------------------------------

e|------------------------------------------------------------------------
b|-t17p13p10-t17p13p10-t17p13p10-t17p13p10-t17p13p10-t17p13p10-t17p13p10-t17p13p10--|
g|------------------------------------------------------------------------
D|------------------------------------------------------------------------
A|------------------------------------------------------------------------
E|------------------------------------------------------------------------


e|------------------------------------------------------------------------
b|-t18p13p10-t18p13p10-t18p13p10-t18p13p10-t18p13p10-t18p13p10-t18p13p10-t18p13p10--|
g|------------------------------------------------------------------------
D|------------------------------------------------------------------------
A|------------------------------------------------------------------------
E|------------------------------------------------------------------------


e|-----------------------------------------------------------------------------|
b|-t17p12h14-t17p12-t17p10-t17p12-t17p10-t17p8-t17p10-t17p8-t17p7-t17p8-t17p7-t17p5~--|
g|-----------------------------------------------------------------------------|
D|-----------------------------------------------------------------------------|
A|-----------------------------------------------------------------------------|
E|-----------------------------------------------------------------------------|

4_ Esta es para los que no son ni principiantes ni buenos tocando la guitarra
Guns n roses- Don´t cry

E|--------------------------------------------------------------------------------------------------------|
B|----------------------------------------------------------------8~~------------8-8-----------------|
G|------------------------7^rp5--7-(7)~~~--r7p5--7^-------r7p5--7^------r7----5^/-|
D|-7~~~~~~~~~---------------------------------------------------------------------------------|
A|--------------------------------------------------------------------------------------------------------|
E|---------------------------------------------------------------------------------------------------------|

E|--------------------------------------------------------------------------------------------------------|
B|---------------------------------------------------------------13^(2 steps)--13^(1/4 step)-|
G|-7/9-9/10---------------------------------------12h14-------------------------------------------|
D|---------------------------------10h12-12/14-----------------------------------------------------|
A|-5/7--7/8---8h10-10/12------------------------------------------------------------------------|
E|--------------------------------------------------------------------------------------------------------|

E|----------------------------------------------------------------------------------------------------------|
B|----------------------------------------------------------------------------------------------------------|
G|-14~~~--12------------------------------------------------------------------------------------------|
D|-------------------14-13h14p13p12-13p12-10-12p10-----------10^----------------------|
A|--------------------------------------------------------------------12p10-------12p10-12-(12)-|
E|---------------------------------------------------------------------------------------------------------|

E|--------15-15-15------------------15-15-------------------------------------------------------|
B|-15^--------------r15p13--15^---------r15--13-12---------12/15-13-12-13--------|
G|--------------------------------------------------------------13----------------------------14----|
D|-------------------------------------------------------------------14--------------------------15-|
A|-----------------------------------------------------------------------------------------------------|
E|------------------------------------------------------------------------------------------------------|

E|-13--------------------------------------------5-------------------------------------------------------------|
B|-----13--15^--15~~~--r15p13--8^-----8-5-----------x-x--8-------------------5^r^(5)r--5-|
G|---------------------------------------------------------r7p5---x-x--7^--(7)-----r7---------------------|
D|----------------------------------------------------------------------------------------------------------------|
A|----------------------------------------------------------------------------------------------------------------|
E|----------------------------------------------------------------------------------------------------------------|

5_ Aerosmith- Dream on
Solo 1
|---------------|------------|
|---------------|------------|
|-5--6--5--6-|-5--6--5--6-|
|---------------|------------|
|---------------|------------|
|---------------|------------|


|-----4------4-----6-|-----6----------|-8-----8-----8/--|-13--------------|
|-------6------6------|-6-----6--------|---6-----6-------|-----------------|
|-5-------5------5---|---5-----5----5-|-----5-----5-----|-----------------|
|----------------------|------------------|-------------------|-----------------|
|----------------------|------------------|-------------------|-----------------|
|----------------------|------------------|-------------------|-----------------|


|--8------8---------|-----8-------8-----|---------------------|
|------6------6-----|--6-----6------6--|-6---8--8b9r8----|
|---------------------|--------------------|---------------------|
|---------------------|--------------------|----------------------|
|---------------------|--------------------|----------------------|
|---------------------|---------------------|---------------------|

|----4------4------6-|------6------------|-8------8------8/--|-13--------------|
|------6------6-------|-6------6---------|----6------6-------|-----------------|
|-5------5------5-----|---5------5----5-|------5------5-----|-----------------|
|-----------------|---------------|-----------------|-----------------|
|-----------------|---------------|-----------------|-----------------|
|-----------------|---------------|-----------------|-----------------|


|-8-----8---------|---8-------8-----|
|-----6-----6-----|-6-----6---------|
|-----------------|-----------------|
|-----------------|-----------------|
|-----------------|-----------------|
|-----------------|-----------------|

Solo 2

|-------------------------|---------------8----------|----------------------------|----------------------|
|-------------------------|--------------------8-11-|-8--------------------------|-8-11b13--------|
|--8h9------8-9p8----|-8-10b12--------------|----10-8------8-10b12|------------------------|
|--------10----------10|---------------------------|-----------10-------------|---------------------|
|-------------------------|---------------------------|---------------------------|----------------------|
|-------------------------|---------------------------|---------------------------|----------------------|

6_ Ac/Dc- Tnt

|-------3-2-0-------------------------------------|
|---------------3-2-0------------------------------|
|-4~------------------2-2p0--------0------------|
|-------------------------------3p0----------------|
|----------------------------------------------------|
|-----------------------------------------19-----|

|-------------12------------------------------------------|
|-15b17~-------15-12-------12---------------------|
|-----------------------------14------14-14p12-------|
|------------------------------------------------------14-|
|-----------------------------------------------------------|
|------------------------------------------------------------|

|------------------------12----------------------12-----|
|-------------------12-------15p12----------------12-|
|-12---------14b---------------------14h16----------|
|-------14------------------------------------------------|
|-----------------------------------------------------------|
|-----------------------------------------------------------|

|-----------------------------------17b19r17--|
|--17---------------------------------------------|
|---------------------------------------------------|
|--------14-12-14~-14-----------------------|
|---------------------------------------------------|
|--------------------------------0------------------|

7_Pink Floyd- Wish you were here
Solo 1
e-----------------------------------------------------------------|
B------------3---5---------3------------------------------------|
G-----2/4-------------4--------4----2---0--------------------|
D-----------------------------------------------0---------0---0-|
A---------------------------------------------------1/2--------|
E----------------------------------------------------------------|


e----3/5/3--------------------------------------------------------------|
B----3/5/3-----3/5/3-----3------3/5/3-----------------------------|
G----------------2/4/2-----0------2/4/2--------2p0----2/4--------|
D----------------------------------------------3/5------------------------|
A---------------------------------------------------------------------------|
E---------------------------------------------------------------------------|


e----------------------------------------------------------------------------------|
B------------3---------5----5b---5----3-----------------3-----5--------------|
G----2/4-------4----------------------------2----4b----------------4b-----2-|
D----------------------------------------------------------------------------------|
A----------------------------------------------------------------------------------|
E----------------------------------------------------------------------------------|


e-------------------------------------------------------------------------------|
B-----------3---------5-----5b-----5------3--------------------------------|
G----2/4------4----------------------------------2----4b-------------------|
D-------------------------------------------------------------------------------|
A-------------------------------------------------------------------------------|
E-------------------------------------------------------------------------------|
Solo 2
e-------------10-10----------10-10-----12-10-10------|
B---10/12----------10/12---------------------------12---|
G---------------------------------------------------------------|
D--------------------------------------------------------------|
A--------------------------------------------------------------|
E---------------------------------------------------------------|

e------------10-10-10-12-10------------------------------|
B---10/12-----------------------12p10p8-----------------|
G------------------------------------------------7-7---9-7---|
D-----------------------------------------------------9-------|
A--------------------------------------------------------------|
E--------------------------------------------------------------|

e------------------------10-10-10---------------12-------------------|
B-------8-10-10/12---------------10--12/14----14p12p10----|
G---9--------------------------------------------------------------------|
D-------------------------------------------------------------------------|
A-------------------------------------------------------------------------|
E-------------------------------------------------------------------------|

e------------10----------------------------------------12--------------------|
B---10/12----12p10p8-10-12-12-8--12/14-----14p12p10--8--|
G-------------------------------------------------------------------------------|
D-------------------------------------------------------------------------------|
A------------------------------------------------------------------------------|
E------------------------------------------------------------------------------|

8_ Cream- Sunshine of your love
------------------------------------------------------------------------------
------------------------12----------------------------------------------------
--b12--b12------------------12-b12----b12---12--b12----------b9p7--9--7--b9--7-----------
------------------------------------------------------------------------------
------------------------------------------------------------------------------
------------------------------------------------------------------------------
~~~~~~ ~~~~~~~~ ~~~~~~~~~

------------------------------------------------------------------------------
-------------------9-----9-----------------------------------------------------------
----------7h9--b9---b9----7h9p7-----------b10---b10---b10------------------------
--7h9-------------------------------------------------------------------------
------------------------------------------------------------------------------
------------------------------------------------------------------------------
~~~~~~~~~~

------------------------------------------------------------------------------
------------------------------------------------------------------------------
--b10----b10----------10--7---b9-----7-----------------b9------------7h9---b9----------
------------------------------------------9--------------------------7h9------------------9-----
------------------------------------------------------------------------------
------------------------------------------------------------------------------
~~~~~~~ ~~~~~~

------------------------------------------------------------------------------
---------------------------------------------------13------------------------------------
--7hb9---b9--b9--7--9---7h9--7----------14-----12--10--11---------10-------------
----------------------------------------------------------------------------12------------12p10---12-
------------------------------------------------------------------------------
------------------------------------------------------------------------------
~~~~~~~ ~~~

--------------10--------------------------------------------------------------
-----------------------------------------------13---------------------------------
--10h11------------b10-------10--b12-----------b12--12--10------12---12/14----
------------------------------12---------------------------------------------------
------------------------------------------------------------------------------
------------------------------------------------------------------------------
~~~~~ ~~~~~ ~~~~~

----------------------------------------10---------------------------------------------
--13------------------------10--10-------------------------------------------------
------14/12--10---b12---------------------b12--10------b10---------------------------
-------------------------------------------------------------12--------12----------------------
-------------------------------------------------------------------------------12-----------------
------------------------------------------------------------------------------
~~~~~~

------------------------------------------------------------------------------
---------------------------------------10--12--------------13--------13--13h15--13----------
---------------------10----10-------10--12---12/14-----------14---------------------14/12---
--10----10--------10h12-10h12-----------------------------------------------------
--10h12-10h12-----------------------------------------------------------------
------------------------------------------------------------------------------
~~~~~~

--------------------------------------------------------------------13------------------------
--------------------------------------13------b15--13--15----13---15p13----------------
--b10----12p10----12/14----------14--------------------------------------14/12--b10----
------------------------------------------------------------------------------
------------------------------------------------------------------------------
------------------------------------------------------------------------------
~~~~~

------------------------------------------------------------------------------
----------------------------------13---13----13--------------------------------------
------------12--10---12/14--------14----14---14/12--b10-------------------------
--12--12------------------------------------------------------------12p10------10h12------
---------------------------------------------------------------------------------12-------------
------------------------------------------------------------------------------

9_I love rock N roll- Joan Jett

Solo
GUITAR 1
Tremlo down
e|-----------------------------|e
B|-----------------------------|B
G|----------------------7~~~---|G
D|--2-2-----------------6~~~---|D
A|--2-2-----------------7~~~---|A
E|--0-0--2B----2B--0-----------|E

e|------------------------12----------------------------------------|e
B|-------------------------------------12-------12----------------|B
G|----------------9--11------11B-------11B---------11B------|G
D|----9/11--------------------------------------------------------|D
A|------------------------------------------------------------------|A
E|-------------------------------------------------------------------|E


e|----------------------------------------------|e
B|------------------------------------12-------|B
G|---9-----9H11----------------9----------|G
D|------11---------XX---9H11------------|D
A|---------------------------------------------|A
E|---------------------------------------------|E

e|--------------------------------------------------------------------|e
B|--------------------------------------------------------------------|B
G|--9-X-9/8---8-X-8/6---6-X-6/4---4-X-4/2----2-X-2/1--|G
D|-------------------------------------------------------------------|D
A|-------------------------------------------------------------------|A
E|-------------------------------------------------------------------|E


e|--------------------------|e
B|--------------------------|B
G|--1-1-1----------------|G
D|----------4-2---2~----|D
A|---------------4---------|A
E|--------------------------|E


10_ Green day- Wake me up when september ends

{e| |-------------------------|-----------------------|------------------------|----------------------------|
{B| |-------12------12--12|-----12-----12--12|-------13----13--13|1515151515151515|
{G|/|1212--1212--12--|1111--1111--11--|1212--1212--12--|1212121211111111|
{D| |------------------------|----------------------|------------------------|------------------------------|
{A| |------------------------|-----------------------|----------------------|-------------------------------|
{E| |------------------------|------------------------|---------------------|--------------------------------|
{
{e| |-------------------------|----------------------|------------------------|----------------------------|
{B| |-------12-----12--12|-----12------12--12|------13-----13--13|1515151515151515|
{G| |1212--1212--12--|1111--1111--11--|1212--1212--12--|1212121212121212|
{D| |------------------------|-----------------------|------------------------|----------------------------|
{A| |------------------------|-----------------------|------------------------|----------------------------|
{E| |------------------------|-----------------------|------------------------|----------------------------|
{
{e| |---------------------------|-----------------------------|----------------------------|
{B| |1515151515151515|1515151515151515|1515151515151515|
{G| |1111111111111111|1212121212121212|1111111111111111|
{D| |---------------------------|-----------------------------|----------------------------|
{A| |---------------------------|-----------------------------|----------------------------|
{E| |----------------------------|-----------------------------|---------------------------|








Tambien pueden buscar solos de Tom morello que algunos son faciles, lo malo es que necesitás mucha distorcion y pedales muy caros para poder tocarlos XD


Espero que les haya gustado

Pd: les dejo esta pag que descubri que tiene tablaturas wenas de canciones conocidas: http://www.ultimate-guitar.com

Anuncios

9 comentarios - Tablaturas de solos faciles para guitarra

Syd22
+10 fiera
Matukapo
manda mp mañana que te dejo 10 maestri
Matukapo
Matukapo dijo: manda mp mañana que te dejo 10 maestri


Ya te los deje
Saludos
guiidota
mañana te dejo +10 crack
Aylii10
hola kipiii toma +10