tablaturas faciles de canciones conocidas

Anuncios

antes que nada, vamos a ver cómo se lee una tablatura

Las tablaturas para guitarra son como una partitura que muestra la posición de los dedos en la guitarra, pero que no da datos de tonos ni duración de las notas. Asi que para tocar una canción a traves de una tablatura, la debes haber escuchado antes para conocer el ritmo y sonido de la guitarra.
En primer lugar, nos interesa saber el nombre de las partes que componen el mastil de la guitarra:
TRASTES: En el mástil se encuentran los trastes, que son las divisiones en que se divide.

CUERDAS: La guitarra tiene 6 cuerdas de distinto grosor, la más fina que esta abajo, es la denominada 1ª cuerda, la siguiente es la 2ª, y así hasta la 6ª que es la más gruesa.

Mastil de la guitarra
......---
Mi 1ra. ||---------|----------|----------|----------|---------|--
Si 2da. ||---------|----------|----------|----------|---------|--
Sol 3ra.||---------|----------|----------|----------|---------|--
Re 4ta. ||---------|----------|----------|----------|---------|--
La 5ta. ||---------|----------|----------|----------|---------|--
Mi 6ta. ||---------|----------|----------|----------|---------|--
......___/1 Traste . 2 Traste . 3 Traste . 4 Traste . 5 Traste

La tablatura se compone de seis líneas horizontales que representan las seis cuerdas de la guitarra, la línea de arriba es la 1ª cuerda y la última línea es la 6ª:

1-e------------------------------primera cuerda
2-B-----------------------------segunda cuerda
3-G-----------------------------tercera cuerda
4-D-----------------------------cuarta cuerda
5-A-----------------------------quinta cuerda
6-E-----------------------------sexta cuerda



En estas líneas estaran unos números que muestran el traste que se tiene que pulsar:

e----4-------------------------
B------------------------------
G-------7----------------------
D-----------5------------------
A------------------------------
E------------------------------

Esto quiere decir que debes comenzar el punteo de guitarra pulsando la cuerda primera(e) en el traste 4, después sigue la cuerda tercera(G) en el traste 7, después sigues la cuerda cuarta(D) en el traste 5.
Si encuentras un 0 en la tablatura te esta indicando que la cuerda hay que tocarla sin pulsarla.



Cuando en la tablatura hay unos números sobre otros, los tienes que tocar al mismo tiempo y cada uno en su traste. Esto se llamaria acorde y se define como: dos o más notas sonando al mismo tiempo.
primera cuerda
(1)e--2---------------------------primera cuerda
(2)D--3---------------------------segunda cuerda
(3)G------------------------------tercera cuerda
(4)D------------------------------cuarta cuerda
(5)A------------------------------quinta cuerda
(6)E------------------------------sexta cuerda

En la tablatura de arriba hay dos notas una encima de otra, sin dejar espacio. Esto indica que hay que tocarlas a la vez. La primera cuerda de la guitarra pisada en el traste 2 y la segunda cuerda pisada en el traste 3, presionas las dos cuerdas a la vez en sus trastes correspondientes y las tocas al mismo tiempo.

*para mas agilidad con la guitarra les recomiendo hacer ejercicios cada dia unos minutos
a mi me ayud0 bastante la verdad


listo, ya estan aptos para tocar



LOS SIMPSONS


1|-----0-2--5-3---0------------------------------------------------------||
2|--1----------------1---------------------------------------------------||
3|----------------------2-----------1-----------1------------------------||
4|---------------------------4-4-4-----4-4-4-4---------------------------||
5|--------------------------------------------------1-1-1-2--------------||
6|-----------------------------------------------------------------------||


CALIFORNICATION - RED HOT CHILI PEPPERS

1|-----------------------------------|----------------------------------||
2|---------0--1----------------------|---------0--1---------------------||
3|-------------------------0---2-----|-----------------------0---2------||
4|-----2-----------------------------|------2---------------------------||
5|--0------------------3-------------|---0----------------3-------------||
6|-----------------1-----------------|-----------------1----------------||


METALLICA - THE UNFORGIVEN

1|--------------------------------------------------|----------------------------------|
2|--------------------------------------------------|----------------------------------|
3|--2-4-5--5-4-2---2-4-5--5-2--(x2)|--2-4-5--4s5--5-5-4----4----2-4-2-|
4|--------------------------------------------------|--------------------5----2--------|
5|--------------------------------------------------|----------------------------------|
6|--------------------------------------------------|----------------------------------|

|-------------------------------------------||
|---------5-5-3------------------------------||
|--2-4-5--------4---4-1--4-1-2-4-2------||
|---------------------------------------------||
|---------------------------------------------||
|---------------------------------------------||

* S = significa arrastar el dedo de un trastre al otro, sin que se pierda el sonido, en este caso del traste 4 al 5.


JUDAS PRIEST - BREAKING THE LAW


1|----------------------------------------------------------||
2|----------------------------------------------------------||
3|----------------------------------------------------------||
4|----------------------------------------------------------||
5|--0--2--3--0-2-3-0-2-3------0-----0----3-2------||(X2)
6|------------------------------1-3---1-3----3----------||



SIMON & GARFUNKEL SIRVE MUCHO COMO EJERCITACION


1|-----0---0-----0---0------0---0----0---0------||
2|-------0----1----0----------0----1---0----------||
3|--2--------------------2-------------------------||
4|--------------------------------------------------||
5|--------------------------------------------------||
6|--------------------------------------------------||


AC/DC - HIGHWAY TO HELL


1|---------------------------------------------------------------------||
2|-----------------3--3--3----3--3--3---3--3--3------------------||
3|---2--2--2-----2--2--0----2--2--0---2--2--0---2--2---------||
4|---2--2--2-----0--0--0----0--0--0---0--0--0---2--2---------||
5|---0--0--0-----X--X--X----X--X--X---X--X--X---0--0---------||
6|-----------------2--2--2----2--2--2---2--2--2------------------||

* X = que no suene, lo que pueden hacer es taparla con el dedo que toca la sexta cuerda


THE FINAL COUNTDOWN - EUROPE


1|--9-7-9------10-9-10--9--7----10-9-10-------7----7---------7------------
2|------------7-----------------------------------7-------10--10--9------10----
3|---------------------------------------------------------------------------
4|---------------------------------------------------------------------------
5|---------------------------------------------------------------------------
6|---------------------------------------------------------------------------

|---9-7-9------10-9-10--9---7-----10-9-10--------7----7-------7-----------
|----------7-----------------------------------------7-----10---10--9----10-------
|-------------------------------------------------------------------------
|-------------------------------------------------------------------------
|-------------------------------------------------------------------------
|-------------------------------------------------------------------------

|------------7---------7--9--7--------------10--9v----9--10---9-7--9-----||
|---9-10-------10--------------10--9--7----------------------------------||
|--------------------------------------------------------------------------------||
|--------------------------------------------------------------------------------||
|--------------------------------------------------------------------------------||
|--------------------------------------------------------------------------------||

* V = hacer vibrar la cuerda


THE MAN WHO SOLD THE WORLD - NIRVANA


1|-------------------------------------------------||
2|-------------------------------------------------||
3|--2--2--2--0----2-3-2--0--(x4)---2---------||
4|-------------------------------------------------||
5|-------------------------------------------------||
6|-------------------------------------------------||


LINKIN PARK - IN THE END


1|----------------------------------------||
2|----------------------------------------||
3|-----3--3-----------------------------||
4|--1-------4--3--3--3--3-4-1--------||(todoX3)
5|----------------------------------------||
6|----------------------------------------||


VAIN GLORY OPERA - EDGUY


1|------------------------8-------------------------------8---------------------------
2|--8---10-11-10-11---11-10--8--6---8---10-11-10-11---11-10--8--10---6----------
3|------------------------------------------------------------------------------------
4|------------------------------------------------------------------------------------
5|------------------------------------------------------------------------------------
6|------------------------------------------------------------------------------------

|-------------------------------------------------------------------------------||
|---8--10--6--8--10--11--10--8--6--15---16---13---11--10---8------||(todo x3)
|-------------------------------------------------------------------------------||
|-------------------------------------------------------------------------------||
|-------------------------------------------------------------------------------||
|-------------------------------------------------------------------------------||


LA ARGENTINIDAD AL PALO - BERSUIT VERGARABAT


1|--------------------------------------------------------------------------------------------------||
2|--------------------------------------------------------------------------------------------------||
3|--------------------------------------------------------------------------------------------------||
4|--------------------------------------------------------------------------------------------------||
5|------0-22-0-22-0-22-----0-22-0-22-0-22---0-22-0-22-0-22-1----111-444-5-4-2-||(X2)
6|--2-------------------------2----------------------3----------------------------------------------||


BEAT IT - MICHAEL JACKSON


1|-------------------------------------------------||
2|-------------------------------------------------||
3|----------0-----------------------0---------------||
4|------------2--4--2-0--0----------2--4--2--0-----||(todo x cuantas veces quieran )
5|--------2-----------------------2-----------------||
6|--0--3--------------------0--3-------------------||


EIRC CLAPRON, WONDERFUL TONIGHT CLASICA


1-------------------------------------------------------------------------------||
2---10b---8--10-----10b--8-------10b--8--10--12--13--17--15-------||
3----------------------------------9--------------------------------------------||
4-------------------------------------------------------------------------------||
5-------------------------------------------------------------------------------||
6-------------------------------------------------------------------------------||

* b =estirar la cuerda hacia arriba

bueno como 'bonus track' pondre una fragmento de un instrumental un poco mas dificil, pero muy bueno para tocar si el post va bien pondre mas canciones


1|---------------------------------------------------------------------------------------------
2|-----10b-----------6b-------------------------------------------------------------------
3|--9-------9-------5-----5---7---9---10---9-10-9-7---5-7-5--4--5--7--5--4--
4|-------------------------------------------------------------------------------------------7--6----
5|-------------------------------------------------------------------------------------------------
6|----------------------------------------------------------------------------------------------

|-------------5---------------10---10--12-12b--10--10v-------------------------
|----10b---------6b--------------------------------------------12-10--9s10--9----
|--9------9-----------5--------------------------------------------------------------
|----------------------------------------------------------------------------------
|-----------------------------------------------------------------------------------
|-----------------------------------------------------------------------------------

|12-12b-12---------------------13-15-15b--15-13-12-13-15b-15-13-15-13||
|-------------13-13b-13--13----------------------------------------------------------15||
|--------------------------------------------------------------------------------------||
|--------------------------------------------------------------------------------------||
|--------------------------------------------------------------------------------------||
|--------------------------------------------------------------------------------------||


LES RECOMIENDO QUE ESCUCHEN LAS CANCIONES MIENTRAS LAS SACAN Y LES PUEDO RECOMENDAR EL PROGRAMA GUITAR PRO QUE YA VIENE CON EL RITMO DE LA CANCION

capaz les parezca dificil pero no lo es, como todo se nesecita paciencia y practica

COMO EJERCICIO PUEDEN HACER LO SIGUIENTE

|--0-1-2-3--0-1-2-3--0-1-2-3--0-1-2-3-||REPETIDAS VECES EN CUALESQIERAS TRASTE Y CUERDA

SINO PUEDEN HACER LO SIGUENTE SUBIENDO CADA VEZ UN TRASTE

1|-0--0--0--0--1--1--1--1--2--2--2--2--2--2--2--2--3--3--3--3--3--3--3--3-----||
2|--0--0--0--0--0--0--0--0--0--0--0--0--1--1--1--1--1--1--1--1--2--2--2--2----||
3|---0--0--0--0--0--0--0--0--0--0--0--0--0--0--0--0--0--0--0--0--1--1--1--1---||
4|----------------------------------------------------------------------------------------------||
5|----------------------------------------------------------------------------------------------||
6|----------------------------------------------------------------------------------------------||

Anuncios

7 comentarios - tablaturas faciles de canciones conocidas

madwin
+10 SOS GROSO SABELO
metaltade

pero podes agregar mas canciones por que todos los post de tablaturas tienen las mismas canciones
Scorpio22
+10 Porque busque canciones faciles de canciones conocidas y saliste vos altoque .. no me llevo nada buscarlo .. Encima estan mortales! ..
De una que van .. Gracias
nacho_siri
despues te dejo 10 x hoy se me acabaron
excelente post pero the final countdown se me hizo un lio jajaja
Ivan711
te dire 10 puntines ... ya las toco todas pero esta muy buena la explicacion