Punteos faciles para guitarra electrica, o criolla :D

Anuncios

bueno en este post les voy a mostrar unas cuantas canciones para tocar con la guitarra de rock metal y otras yerbas...

algunas claves para leer los punteos

la E de arriba es la cuerda más finita la de abajo, la más gruesa
si hay un número con una x significa que hay que repetir la parte entre asteriscos cuantas veces lo indique
Efectos:
L=Ligar(Esto quiere decir que debemos dejar que la nota anterior suene hasta un determinado momento)
S=Arrastre(Se emplea un dedo para pasar de una nota a otra deslizándolo sobre la cuerda)
PM=Palm Mute(Se apoya suavemente la palma de la mano derecha sobre las cuerdas para apagarlas y se tocan las notas)
W=Vibrato amplio(mover el dedo arriba y abajo sin dejar de presionar la cuerda haciendo un sonido notable)
~=Vibrato(lo anterior, solo que no tan notable)

Smoke on the water-Deep Purple
E||--------------------------|------------------------|
B||--------------------------|------------------------|
G||*--0-----3-----5-------0--|-----3-----6--5---------|
D||*-------------------------|------------------------|
A||--------------------------|------------------------|
E||--------------------------|------------------------|

-------------------------|-----------------------|
-------------------------|-----------------------|
--0-----3-----5-------3--|-----0------L---------*|
-------------------------|----------------------*|
-------------------------|-----------------------|
-------------------------|-----------------------|
este tema se puede tocar con cualquier cuerda

Rock you like a hurricane-Scorpions(dos formas)
forma 1:
intro

7x
E||--------------------------|--------------------------||
B||--------------------------|--------------------------||
G||*-------------------------|-------------------------*||
D||*-------------------------|-------------------------*||
A||---7--7--7----------------|-----------3-----5--5-----||
E||-----------------3--3-----|--5--5--------------------||


-------------------------|-------------------------|-------------------||
-------------------------|-------------------------|-------------------||
-------------------------|-------------------------|-------------------||
-------------------------|-------------------------|-------------------||
--7--7--7----------------|-----------3-----5--5----|--L----------------||
----------------3--3-----|--5--5-------------------|-------------------||

base
7x
|---------------------------|---------------------------||
|---------------------------|---------------------------||
|*--------------------------|--------------------------*||
|*--------------------------|--------------------------*||
|---3--3--3--7--7--7--7--7--|--3--3--3--7--7--5--5--5---||
|---------------------------|---------------------------||

--------------------------|-----------------------|-------------------|
--------------------------|-----------------------|-------------------|
--------------------------|-----------------------|-------------------|
--------------------------|-----------------------|-------------------|
--3--3--3--7--7--7--7--7--|--3--3--3--5--L--------|--L----------------|
--------------------------|-----------------------|-------------------|

-------------------||
-------------------||
-------------------||
-------------------||
--L----------------||
-------------------||

forma 2:

intro

7x
E||--------------------------|---------------------------||
B||--------------------------|---------------------------||
G||*-------------------------|--------------------------*||
D||*--2--2--2----------------|-----------------0--0--0--*||
A||--------------------------|--0--0-----3---------------||
E||-----------------3--3-----|---------------------------||

-------------------------|--------------------------|-------------------|
-------------------------|--------------------------|-------------------|
-------------------------|--------------------------|-------------------|
--2--2--2----------------|-----------------0--0--0--|--L----------------|
-------------------------|--0--0-----3--------------|-------------------|
----------------3--3-----|--------------------------|-------------------|

base

7x
|---------------------------|---------------------------||
|---------------------------|---------------------------||
|*--------------------------|--------------------------*||
|*-----------2--2--2--2--2--|-----------2--2--0--0--0--*||
|---3--3--3-----------------|--3--3--3------------------||
|---------------------------|---------------------------||

--------------------------|-----------------------|-------------------|
--------------------------|-----------------------|-------------------|
--------------------------|-----------------------|-------------------|
-----------2--2--2--2--2--|-----------0--L--------|--L----------------|
--3--3--3-----------------|--3--3--3--------------|-------------------|
--------------------------|-----------------------|-------------------|

-------------------||
-------------------||
-------------------||
--L----------------||
-------------------||
-------------------||

Come as you are-Nirvana

acá si saben afinar deberán hacerlo asi DGCFAD=Re Sol Do Fa La Re


D||-----------------------|-------------------------|-------------------------|
A||-----------------------|-------------------------|-------------------------|
F||-----------------------|-------------------------|-------------------------|
C||-----------------------|-------------------------|-------------------------|
G||-----------------------|-------0-----0-----------|-----2----------2--------|
D||--------------0--0--1--|--2-------2-----2--2--1--|--0-----0--0-------0--1--|

-------------------------|-------------------------|-------------------------|
-------------------------|-------------------------|-------------------------|
-------------------------|-------------------------|-------------------------|
-------------------------|-------------------------|-------------------------|
-------0-----0-----------|-----2----------2--------|-------0-----0-----------|
--2-------2-----2--2--1--|--0-----0--0-------0--1--|--2-------2-----2--2--1--|

-------------------------|-------------------------|-------------------------|
-------------------------|-------------------------|-------------------------|
-------------------------|-------------------------|-------------------------|
-------------------------|-------------------------|-------------------------|
-----2----------2--------|-------0-----0-----------|-----2----------2--------|
--0-----0--0-------0--1--|--2-------2-----2--2--1--|--0-----0--0-------0--1--|

B.Y.O.B.-System of a Down

_____PM_PM_PM_______PM_____PM_PM____PM_PM_PM___
E||-------------------------------------------|
B||-------------------------------------------|
G||-------------------------------------------|
D||-------------------------------------------|
A||-------------------------------------------|
E||--0--0--0--------0------0--0------0--0--0--|


__PM PM PM______PM_____PM_PM_____PM_PM_____
------------------------------------------|
------------------------------------------|
------------------------------------------|
------------------------------------------|
--3--3--3--------3------3--3------3--3----|
------------------------------------------|


__PM_PM_PM_______PM_______PM_PM_PM_PM_PM_PM__
--------------------------------------------|
--------------------------------------------|
--------------------------------------------|
--------------------------------------------|
--------------------------------------------|
--0--0--0--------0--------0--5--7--8--7--5--|

__PM_PM________W____W__W__W__W__W__________
-----------------------------------------||
-----------------------------------------||
-----------------------------------------||
-----------------------------------------||
---------------3S---5S-3S-5S-3S-5S-3~----||
--3--5--3-L------------------------------||

De musica ligera (soda stereo)

Solo 1:
e-----------------------------------------------
B-----------------------------------------------
G-----------------------------------------------
D---------0------0------------------------------
A-2--2--4------4---4-2-0---2--0-----------------
E------------------------2-------2-0-2-0--------

e-----------------------------------------------||
B-----------------------------------------------||
G---------------------------------2-------------||
D---------0--2--4--2--0-------------0--2/4--4/7-||
A-2--2--4---------------4--2----0---------------||
E-----------------------------------------------||

Solo 2:

e--7--5--7--5--7--5/2--2-0-2-(5.2.0)-2--5/7-7-
B----------------------------------------------
G----------------------------------------------
D----------------------------------------------
A----------------------------------------------
E----------------------------------------------

e-----12-10-9-10-12-10-9-7-9-7-5-
B--------------------------------
G--------------------------------
D--------------------------------
A--------------------------------
E--------------------------------


e---0-(5.7.5)--0-(5.7.5)--0-(7.9.7)-0-(7.9.7)-0-
B---------------------------------------------------
G---------------------------------------------------
D---------------------------------------------------
A---------------------------------------------------
E---------------------------------------------------


e---14--12--14--12-14-15-14-12--12-14-15-14-12-10-9-10-12-10-9----
B-----------------------------------------------------------------
G-----------------------------------------------------------------
D-----------------------------------------------------------------
A-----------------------------------------------------------------
E-----------------------------------------------------------------

e---2-(5.2.0)-2----5-(7.5.0)-5---2-(5.2.0)--2-----
B----------------------------------------------------
G----------------------------------------------------
D----------------------------------------------------
A----------------------------------------------------
E----------------------------------------------------

e--5.7.5--7.9.7--9.11.9--10.12.10--14--||
B--------------------------------------||
G--------------------------------------||
D--------------------------------------||
A--------------------------------------||
E--------------------------------------||
FIesta pagana, (mago de oz) la consegui con este tipo de notas
Lento:
SI-LA-SOL-SI-LA-SOL-MI
SI-LA-SOL-SI-LA-SOL-RE
LA-SOL-FA-LA-SOL-FA-RE
LA-SOL-FA-SOL-LA-SOL-MI

SI-LA-SOL-SI-LA-SOL-MI
SI-LA-SOL-SI-LA-SOL-RE
LA-SOL-FA-LA-SOL-FA-SOL
SOL—LA-SOL-FA-MI-RE-MI-MI-MI-M I

SI-LA-SOL-SI-LA-SOL-MI-MI-MI-M I
SI-LA-SOL-SI-LA-SOL-RE-RE-RE-R E
LA-SOL-FA-LA-SOL-FA-RE-RE-RE-R E
LA-SOL-FA-SOL-LA-MI-MI-MI-MI-M I

SI-LA-SOL-SI-LA-SOL-MI-MI-MI-M I
SI-LA-SOL-SI-LA-SOL-RE-RE-RE-R E
LA-SOL-FA-LA-SOL-FA-SOL-SOL-SO L
SOL-FA-SOL-LA-MI-MI-MI-MI-MI

Entran la guitarra y la batería

Rápido:
SI-LA-SOL-SI-LA-SOL-MI-MI-MI-M I
SI-LA-SOL-SI-LA-SOL-RE-RE-RE-R E
LA-SOL-FA-LA-SOL-FA-RE-RE-RE-R E
LA-SOL-FA-SOL-LA-MI-MI-MI-MI-M I




SI-LA-SOL-SI-LA-SOL-MI-MI-MI-M I
SI-LA-SOL-SI-LA-SOL-RE-RE-RE-R E
LA-SOL-FA-LA-SOL-FA-SOL-SOL-SO L
SOL-LA-SOL-FA-MI-RE-MI-FA-SOL- FA-MI-RE-MI-RE

Cuando despiertes un día
y sientas que no puedes más,
que en el nombre del de arriba
tu vida van a manejar.

Si sientes…(SI-mi-mi-mi-mi-mi-r e-do-SI-LA)piel
por ser…(SI-do-re-re-re-re-re-SI -LA-SOL)querer
si te rindes…(MI-LA-LA-LA-do-SI-SI
SI-LA-SOL-FA-MI-RE-MI)… pensarás.

MI-SI-MI-SI-MI-SI-MI
mi-mi-re-do-SI-LA-SOL-LA-SI-do
MI-SI-MI-SI-MI-SI-MI
mi-mi-re-do-SI-LA-SOL-LA

MI-SI-MI-SI-MI-SI-MI
mi-mi-re-do-SI-LA-SOL-LA-SI-do
MI-SI-MI-SI-MI-SI-MI
mi-mi-re-do-SI-LA-SOL-LA

Cuando vayan a pedirte
los diezmos a fin de mes
y la Santa Inquisición
te invite a “confesar”,

Por eso…(SI-mi-mi-mi-mi-mi-re-do -SI-LA) voz,
di que…(SI-do-re-re-re-re-re-SI -LA-SOL) opinión
si…(MI-LA-LA-LA-do-SI-SI
SI-LA-SOL-FA-MI-RE-MI)… de so| a so|

Ponte en pie
alza el puño y ven
a la fiesta pagana
en la hoguera hay de beber.

De la misma condición
no es el pueblo ni un señor,
ellos tienen el clero
y nosotros nuestro sudor.

MI-MI-MI
SI-LA-SOL-SI-LA-SOL-MI-MI-MI-M I
SI-LA-SOL-SI-LA-SOL-RE-RE-RE-R E
LA-SOL-FA-LA-SOL-FA-RE-RE-RE-R E
LA-SOL-FA-SOL-LA-MI-MI-MI-MI-M I

SI-LA-SOL-SI-LA-SOL-MI-MI-MI-M I
SI-LA-SOL-SI-LA-SOL-RE-RE-RE-R E
LA-SOL-FA-LA-SOL-FA-SOL-SOL-SO L
SOL-LA-SOL-FA-MI-RE-MI-FA-SOL- FA-MI-RE-MI-RE

Si no hay pan para los tuyos
y ves muy gordo al abad,
si su virgen viste de oro,
desnúdala.

Cómo van…(SI-mi-mi-mi-mi-mi-re-do -SI-LA)silenciar
al jilguero…(SI-do-re-re-re-re- re-SI-LA-SOL)canario
si…(MI-LA-LA-do-SI-SI
SI-LA-SOL-FA-MI-RE-MI)…para el canto libertario.

Ponte en pie
alza el puño y ven
a la fiesta pagana
en la hoguera hay de beber.
De la misma condición
no es el pueblo ni un señor,
ellos tienen el clero
y nosotros nuestro sudor.

MI-SI-MI-SI-MI-SI-MI
mi-mi-re-do-SI-LA-SOL-LA-SI-do
MI-SI-MI-SI-MI-SI-MI
mi-mi-re-do-SI-LA-SOL-LA

MI-SI-MI-SI-MI-SI-MI
mi-mi-re-do-SI-LA-SOL-LA-SI-do
MI-SI-MI-SI-MI-SI-MI
mi-mi-re-do-SI-LA-SOL-LA

(SoIo de guitarra)

Ponte en pie
alza el puño y ven
a la fiesta pagana
en la hoguera hay de beber.
De la misma condición
no es el pueblo ni un señor,
ellos tienen el clero
y nosotros nuestro sudor.

SI-mi-mi-mi-mi-mi-re-do-SI-LA
SI-do-re-re-re-re-re-SI-LA-SOL
MI-LA-LA-LA-do-SI-SI-SI
SI-LA-LA-LA-SOL-FA-SOL

SI-mi-mi-mi-mi-mi-re-do-SI-LA
SI-do-re-re-re-re-re-SI-LA-SOL
MI-LA-LA-LA-do-SI-SI-SI
SI-LA-LA-LA-SOL-FA-SOL

Ponte en pie
alza el puño y ven
a la fiesta pagana
en la hoguera hay de beber.
De la misma condición
no es el pueblo ni un señor,
ellos tienen el clero
y nosotros nuestro sudor.

Ponte en pie…Rápido(MI-MI-MI
SI-LA-SOL-SI-LA-SOL-MI-MI-MI-M I
SI-LA-SOL-SI-LA-SOL-RE-RE-RE-R E
LA-SOL-FA-LA-SOL-FA-RE-RE-RE-R E
LA-SOL-FA-SOL-LA-MI-MI-MI-MI-M I
se repite 3 veces)
OOOOOOOOOOOOOOO!!!!!
OOOOOOOOOOOOOOO!!!!!
SI-LA-SOL-SI-LA-SOL-MI-MI-MI-M I
SI-LA-SOL-SI-LA-SOL-RE-RE-RE-R E
LA-SOL-FA-LA-SOL-FA-SOL-SOL-SO L
SOL-LA-SOL-FA-MI-RE-MI-FA-SOL- FA-MI-RE-MI-RE
RE-MI-FA-SOL-FA-MI-RE.

El padrino:

Primero, para los que no entiendan tablaturas:
(El numero romano es la cuerda y el numero es el traste ej; II: 1 Cuerda 2 traste 1)

II: 0
I: 0,3,2,0,3,0,2,0
II: 1,3,0
II: 0
I: 0,3,2,0,3,0,2,0
II: 0
III: 3,2,0
II: 1
I: 0,2
III: 0
II: 0,4
I: 0
IV: 2
I: 3
II: 3,1,0,3,1,0,0,4

1|--0-3-2-0-3-0-2-0-------0-3-2-0-3-0-2-0-----------0-2-----0-3----------------------|
2|-0---------------1-3-0-0---------------0---------1-----0-4---3-1-0-3-1-0-0-4-------|
3|-------------------------------------------3-2-0------0----------------------------|
4|-----------------------------------------------------------2-----------------------|
5|-----------------------------------------------------------------------------------|
6|-----------------------------------------------------------------------------------|

Espero que les guste y les sirva, saludos

Anuncios

9 comentarios - Punteos faciles para guitarra electrica, o criolla :D

Shwap
Faltaría algo de Nirvana para terminar el combo .
Buen post! ( la de 'El Padrino' yo lo toco mas abajo )
coca15
manso post amigo
totodewolf
siempre intento encontrar los punteos de la cancion de nirvana pero nunca las entiendo y me parese complicado me gustaria otro post con los punteos de nirvana mas facil y copado muy bueno el post
sebaslml +1
me se la del mago de oz en flauta y son las mismas notas jajaj
chela_10 +3
La de mago de oz la toco en flauta?? jajaja
ElBurzakero
el de smoke on the water suena mejor tocando igual pero la 3ra y la 4ta cuerdas al mismo tiempo