Bajan Luis Alberto Spinetta Acordes

Anuncios

acá les dejo los acordes de un tema muy lindo de spinetta que siempre ponen los acordes mal!
la intro hace un rasguido para abajo pero tocando solo las cuerdas 3,4,5 y 6, otro para abajo y otro para arriba en E después con el dedo 4 toca un C# traste 2 cuerda 2
y toca el C# solo y después el e de la cuerda 1 al aire..
después pone el dedo 4 en el G de la cuerda 6 en traste 3 y pellizcas la nota para que suene el G estirándose y después al soltar el E al aire pero ojo que también hace el rasguido del comienzo que se repite ese el de las cuatro cuerdas .. y repite
acá en TAB

-------- 0-----0--------------------0-----------------------------------------------------------------------------------------e
-------- 0-----0----------3-------------------------------------------------------------------------------------------------b
----1-- 1-----1------------------------------------------------------------------------------------------------------------g
----2---2-----2--------------------------------------------------------------------------------------------------------------d
----2---2-----2--------------------------------------------------------------------------------------------------------------a
----0---0-----0-------------------------------3 pellizcando y que suene el 0 después-------------------------e
[
align=left]
E------------
Tengo tiempo
---------F#m C#m F#dism
para saber si lo que sueño
B --------------- E
concluye en algo
-------------------- F#m
No te apures ya más, loco
C#m ------- F#dism ----------B-----------
porque es entonces cuando las horas
C#m ------G#m --------- B --- C#m
bajan, el día es vidrio sin sol
C#m ----G#m ------B --C --C#m
bajan,la noche te oculta la voz
----------C-- A --C#m7 --F#m
y además vos queres sol
-----C#m------- Em7M(maj7) ------------- C#m A
despacio también podés hallar la luna

Viejo roble
del camino
Tus hojas siempre se agitan algo
Nena nena
que bien te ves
cuando en tus ojos no importa si las horas
bajan, el día se sienta a morir
bajan la noche se nubla sin fin
y además vos sos el sol
despacio también podés ser la luna
[/align]

En la siguiente parte repiten los acordes, espero que les haya servido cualquier duda y sugerencia, no hay drama!
es mi primer post no es la gran cosa pero espero que a alguien le sirva, la fuente de estos acordes
es mi oído y después corregido por un amigo que saca música clásica a oído asique ya se imaginaran jajaj
y acá les dejo el tema que lindo que es!


link: http://www.youtube.com/watch?v=ZGXg4C7Hljw

SALUDOS

Anuncios

8 comentarios - Bajan Luis Alberto Spinetta Acordes

Leandro_a42 +1
Gracias por los acordes de esta exelente cancion del flaco
Rokcio +1
Te dejo 10, me encanta la canción y mas Spinetta
Tomikz +1
Qué dificil es sacar bien este tema.. en realidad no tiene acordes complicados, pero hay partes que no me salen bien, y busco en internet y en todas las paginas me tira un acorde que no me convence. Y viendo videos, todos lo hacen distinto, ya me confunden xD
trollifacio +1
no se tocar pero para los q buscan esta bien..q se yo estoy re loco.. +10
Hernanreb
están muy bien los acordes, vayan 10 puntos.