El post que buscas se encuentra eliminado, pero este también te puede interesar

Ciro y los persas-Insisto y acordes!

Anuncios

hola amigos!!! de T!

Insito-ciros y los persas

link: http://www.youtube.com/watch?v=joBy29rgSzs&

acordes del tema

Intro:
Riff
E
e|----0---0---0---0---0---0---0--|--|
b|4/5---4---2---0---------------0|--|
g|------------------2---1---2----|x2|
d|-------------------------------|--|
a|-------------------------------|--|
E|-------------------------------|--|

Estrofa:
E
Yo la vi sin querer, buscaba alguna mujer
C#m
que fuera el viento, fuera el viento en mi cien.
E
Y la vi, que va a ser, una hermosa lucifer,
C#m
robo mi tiempo, mi pensamiento y mi fé,
A E (Riff)
Y dejo detras de si
C#m G# (fill)
tristes versos que oigo en mi.

Fill:
e|---------|
b|---------|
g|5b6p5----|
d|------6--|
a|--------6|
E|---------|


(Intro)

E
Y que mas, tarde gris, te diria, que decis
C#m
si te olvidaste, si te olvidaste de mi.
E
Si no fui, mejor postor, fue aquel maldito temor
C#m
si yo pedia, vos te alejabas de mi
A E (riff)
Y quebro mi corazon
C#m G# (fill) A
como se quiebra un carbon encendido ohhhhh

Estribillo:
G
si yo te volviera a ver
Bm A
insisto, siempre te voy a querer
G
insisto, aunque el tiempo diga no
Bm A
insisto, nunca morira este amor.


E
e|------------------------------------------|
b|----------------9-9-----9-9h10p9----------|
g|--------------9-9-9-11p9--------11p9------| aclaracion si se le ve corrido el tab copiar a un bloc de nota!!(txt)
d|----------9-11----------------------11p9--|
a|---7-9/11-------------------------------11|
E|7-9---------------------------------------|

C#m E
e|------------------------------|--------|--|
b|------------------------------|-9b10~--|--|
g|-9-9-------------------9--9---|-9b~----|x
d|-----11-----9--9h11---------11|--------|--|
a|---------11---------11--------|--------|--|
E|------------------------------|--------|--|
C#m
e|------------------------------------------|
b|------------11----------------------------|
g|---------9----11-----------11b13--11p9-11b|
d|-9-9h11----------9----9h11----------------|
a|------------------------------------------|
E|------------------------------------------|

a|----------------------------|
E|----------------------12/14-|
a|--------------------9-------|
E|-------------9-9h11---------|
a|------9-9/11----------------|
E|-9/11-----------------------|


A E (riff)
Y quebro mi corazon
C#m G# (fill) A
como se quiebra un carbon encendido ohhhhh

Estribillo:
G
si yo te volviera a ver
Bm A
insisto, siempre te voy a querer
G
insisto, una hermosa lucifer
Bm A
insisto, un demonio hecho mujer.
A G
insisto, aunque el tiempo diga no
Bm A G5
insisto, nunca morira este amor.


A G Bm A
Hohohohohooo hohohohohoooo

(Intro)

E
Nunca me perdonare, no haber hecho mas nose
C#m
el tiempo todo destruye, todo lo se.

Lacuerda.net!!

espero que le haya gustado y comente!!!

Anuncios

4 comentarios - Ciro y los persas-Insisto y acordes!

@atilas_87 -1
escribir un comentario...
@rodrigazze
muy buena papa ! te dejo +10
@cucose
soy medio malo con el tema de rasguear .... onda ... me cuesta encontrarle los acordes a la cancion ... sep asar todos los acordes a la perfeccion pero en una cancion asi ? ni los encuentro
@rodrigoe26
que significa p y h en el solo ( 9p11 .. 9h11) por favor...

y en la de 5b6