punteos para guitarra...

punteos para guitarra...

folklore

¡Hola! amigos de T! Soy Julio_2112 Y les traigo algunos punteos de todo tipo, rock, cumia, etc. Espero que lo disfruten y compartan para todos...! Saludos..

guitarra

rock
Sigueme soy muy Acitvo

cumbiaLo resubo y edito al post..!!


PunteosCualquier Duda Mandame un Mp ( Mensaje Privado )


punteos para guitarra...
Primer punteo: choque de cometas de la nueva luna:folklore


1-------------------------------------------------------------
2---2-3-2-3--------2-3-2-3-------------3-6-6-6-4-6-4--4--4---4
3--------------3-----------3---------3-----------------5---5--
4-----------------5-----------5--5-5--------------------------
5-------------------------------------------------------------
6-------------------------------------------------------------

1-------------------------------------------------3-3-3-1-3-1-
2---3-4-3-4--------3-4-3-4---------1-1-2-1-----------------3--
3-------------5-2--------------5-2-2-2-4-2------------------
4-------------------------------------------------------------
5-------------------------------------------------------------
6-------------------------------------------------------------

1---------------------------------------------------------------------
2---2-3-2-3-------2-3-2-3------------------3-6-6-6-4-6-4---4---4---4--
3-------------3-------------3--------------3-----------------5---5---5
4----------------5--------------5----5-5------------------------------
5---------------------------------------------------------------------
6---------------------------------------------------------------------


1-----------------------------------------3-3-3-1-3-5-6--------
2---3-4-3-4--------3-4-3-4------1-1-2-1------------------------
3-------------5-2-----------5-2-2-2-4-2------------------------
4--------------------------------------------------------------
5--------------------------------------------------------------
6--------------------------------------------------------------


1-----3---3-----1-1-1---1----------------1--3-3-3---3--------------3-
2--3---3----3----------1---1------1---1-----------3---3------3---3---
3-----------------------------2--2--2-------------------3--3---3-----
4--------------------------------------------------------------------
5--------------------------------------------------------------------
6--------------------------------------------------------------------

1---1-1-1----1----------------1--1-2-3-------------------------------
2-----------1---1----------1------------------------------3-6-3------
3------------------2-----2----------------------------3-5-------5-3--
4---------------------3--------------------------3-5----------------5
5---------------------------------------------3-5--------------------
6----------------------------------------3-6-------------------------
guitarra
segundo punteo: este punteo es de rata blanca:

la leyenda del ada y el mago:


3 veces
E---------------------------------------------------|--------------------
B---------------------------------------------------|--------------------
G*-------------------------------------------------*|--------------------
D*-------------------------------------------------*|--------------------
A---------------------------------------------------|--------------------
E---3-0-0-0-0-0-3-0-0-0-0-0-3-2-0-5-3-2-3-0-0-0-0-0-|-3-0-0-0-0-0-3-0-0-0
Pm......................................................................
Letra riff 1
E-----------------------------|-------------------------|----------------
B-----------------------------|-------------------------|----------------
G-----------------------------|*------------------------|----------------
D-----------------------------|*------------------------|----------------
A-------------2-3-5-3-2-------|-------------------------|-5-5-5-5-5-5-5-5
E-0-0-0-2-3-5-----------5-3-2-|--0-0-0-0-0-0-0-0-0-0-0-0|----------------
.........................................................................

E--------|-----------------------|-------------------------|-------------
B--------|-----------------------|-------------------------|-------------
G--------|-----------------------|-------------------------|-------------
D--------|-----------------------|-------------------------|-------------
A-5-5-5-5|-----------------------|2-2-2-2-2-2-2-2-2-2-2-2-2|-------------
E--------|0-0-0-0-0-0-0-0-0-0-0-0|-------------------------|3-3-3-3-3-3-3
.........................................................................

E----------|-----------------------|------------------------------------|
B----------|-----------------------|------------------------------------|
G----------|-----------------------|------------------------------------|
D----------|-----------------------|------------------------------------|
A----------|5-5-5-5-5-5-5-5-5-5-5-5|3-3-3-3-3-3-3-3-2-2-2-2-2-2-2-2-2---|
E-3-3-3-3-3|-----------------------|------------------------------------|
.........................................................................
(1° vez) (2° vez) fin riff 1 Coro...
E-----------------------|------------------------||----------------------
B-----------------------|------------------------||----------------------
G----------------------*|------------------------||----------------------
D-----------------5--4-*|------------------------||----------------------
A-----------------3--2--|------------------------||-3-3-3-3-3-3-3-3-3-3--
E-0-0-0-0-0-0-0-0-------|-0-0-0-0-0-0-0-0-0-0-0-0||----------------------
.........................................................................

E----|-----------------------|-----------------------|-------------------
B----|-----------------------|-----------------------|-------------------
G----|-----------------------|-----------------------|-------------------
D----|-----------------------|-----------------------|-------------------
A-3-3|-----------------------|-----------------------|-------------------
E----|0-0-0-0-0-0-0-0-0-0-0-0|2-2-2-2-2-2-2-2-2-2-2-2|3-3-3-3-3-3-3-3----
.........................................................................

E------------------|-------------------------|--------------------------|
B------------------|-------------------------|--------------------------|
G------------------|-------------------------|--------------------------|
D------------------|-------------------------|--------------------------|
A------------------|-------------------------|--------------------------|
E-4-4-4-4-4-4-4-4-4|5-5-5-5-5-5-5-5-5-5-5-5-5|6-6-6-6-6-6-6-6-6-6-6-6---|
.........................................................................


E------------------------|-----------------------|-----|-----|-----|-----
B------------------------|-----------------------|-----|-----|-----|-----
G------------------------|-----------------------|-----|-----|-----|-----
D------------------------|-----------------------|-----|-----|-----|-----
A------------------------|-----------------------|-7---|-5---|-3---|-----
E-7-7-7-7-7-7-7-7-7-7-7-7|7-7-7-7-7-7-7-7-7-7-7-7|----5|----3|----2|-----
.................................................

E------------------------------------------------||---------------------|
B------------------------------------------------||---------------------|
G-------------------------------------5-5-5-4-4-4||----SE REPITE TODO---|
D-------------------------5-5-5-4-4-4------------||--DESDE EL PRINCIPIO-|
A-------------3-3-3-2-2-2------------------------||------HASTA-AQUI-----|
E-3-3-3-2-2-2------------------------------------||---------------------|
Pm ..............................................
SOLO...
E|12p7----------3|-7p3-3------||-14p11—11-14p11--11-15p12--12-15p12—-12-|
B|----8--------5-|----5-7-4-5-||------12-------12--------12--------12---|
G|-----9------4--|-----------*||----------------------------------------|
D|------9----5---|-----------*||----------------------------------------|
A|-------10-7----|-----------*||----------------------------------------|
E|---------------|-----------*||----------------------------------------|

E-17p14--14-17p14--14-19p15—-15-19|-20p17--17-17p14--14-19p15--15-15p12—-
B------15--------15--------17-----|------17--------15--------17--------13
G---------------------------------|--------------------------------------
D---------------------------------|--------------------------------------
A---------------------------------|--------------------------------------
E---------------------------------|--------------------------------------

E-12|-15p12—-12-14p11—11--/12||-/12-14-15-14b-14p12-14-12-14-15-12-14-15-
B---|------12--------12------||------------------------------------------
G---|-----------------------*||------------------------------------------
D---|-----------------------*||------------------------------------------
A---|------------------------||------------------------------------------
E---|------------------------||------------------------------------------

E-14-15-17-14-15-17-19b-19p17-19-19b-19-17----------------19p15---17p14--
B------------------------------------------20-19-17-19--17------15-------
G------------------------------------------------------------------------
D------------------------------------------------------------------------
A------------------------------------------------------------------------
E------------------------------------------------------------------------

E----------------------19b---/14-14~---------11-12-14-12-11--------------
B-15---------------------------------10-12-13--------------13-12-10------
G----20-20br-19-21br-20--------------------------------------------12-11-
D------------------------------------------------------------------------
A------------------------------------------------------------------------
E------------------------------------------------------------------------


E------------------------5-9p5-----16p13--12-19p16--16-22p19--19-21b-----
B-----------------------7-----7---------15--------18--------21-----------
G-9-8------------------6-------6-----------------------------------------
D----10-9-7-----------7---------7----------------------------------------
A----------10-9-7-9--9-----------9---------------------------------------
E------------------------------------------------------------------------

E-21p17---------------------------19p16-------------------------------16-
B------19-------17~--15b-15p14-15------17-------15~-14b-14p12-14--/19----
G--------18------------------------------16------------------------------
D----------19------------------------------18----------------------------
A------------21------------------------------19--------------------------
E------------------------------------------------------------------------

E-17-19-19b---21p17---17-17p14---14-14p9---9---20b*-21b*--20-19-17-19-17-
B------------------19---------14--------10-------------------------------
G------------------------------------------------------------------------
D------------------------------------------------------------------------
A------------------------------------------------------------------------
E------------------------------------------------------------------------

E-15-20-19-17-19-17-15-17-15-14-15-14-12-14-12-10-12-10-8-10-8-7-12-10-8-
B------------------------------------------------------------------------
G------------------------------------------------------------------------
D------------------------------------------------------------------------
A------------------------------------------------------------------------
E------------------------------------------------------------------------

E-14-12-10-12-10-8-14-12-10-12-10-8-10-8-7-8-7-5-7-5-3-5-3-2-5-3-2-7-5-3-
B------------------------------------------------------------------------
G------------------------------------------------------------------------
D------------------------------------------------------------------------
A------------------------------------------------------------------------
E------------------------------------------------------------------------

E-8-7-5-10-8-7-12-10-8-14-12-10-15-14-12-17-15-14-19-17-15-19b-19p17-----
B--------------------------------------------------------------------19b-
G------------------------------------------------------------------------
D------------------------------------------------------------------------
A------------------------------------------------------------------------
E------------------------------------------------------------------------

E-------------5p2--2-5p2--2-4p1--1-4p1---1-7p4--4-7p4--4-5p2--2-5p2--2---
B-19b-19br------2------2------2-------2------6------6------2------2-----
G------------------------------------------------------------------------
D------------------------------------------------------------------------
A------------------------------------------------------------------------
E------------------------------------------------------------------------

E-9p5--5-9p5--5-7p4—4-7p4—4-10p7--7-10p7--7-9p5--5-9p5--5-10p7--7-10p7--7
B----5------5------5-----5------9-------9------5------5-------9-------9--
G------------------------------------------------------------------------
D------------------------------------------------------------------------
A------------------------------------------------------------------------
E------------------------------------------------------------------------

E-11p8--8-11p8--8-12p9---9-12p9---9-13p10---10-13p10---10-14p10---10-----
B-----9-------9-------10-------10--------10---------10---------12--------
G------------------------------------------------------------------------
D------------------------------------------------------------------------
A------------------------------------------------------------------------
E------------------------------------------------------------------------

E-14p10---10-10p7--7-7p2-------------------------------------------------
B------12--------7-------3---------15-13-12-17-15-13-15-13-12-17-15-13-19
G--------------------------4-4b~-----------------------------------------
D------------------------------------------------------------------------
A------------------------------------------------------------------------
E------------------------------------------------------------------------

E-------------------------19br-19p17-------------------------------------
B-17-15-20-19-17-22-20-19------------19b~---7---7-9-10--7---7-9-10-------
G-------------------------------------------9b----------9b---------------
D------------------------------------------------------------------------
A------------------------------------------------------------------------
E------------------------------------------------------------------------

E---------7-12p7---------------15-14-12-14-12-11-15-14-12-14-12-11-17-15-
B--------8------8-------10b----------------------------------------------
G-------9--------9-------------------------------------------------------
D------9----------9------------------------------------------------------
A--7-10------------10p7--------------------------------------------------
E------------------------------------------------------------------------

E-14-15-14-12-14-12-11-15-14-12-17-15-14-19-17-15-20-19-17-19-17-15-17-15
B------------------------------------------------------------------------
G------------------------------------------------------------------------
D------------------------------------------------------------------------
A------------------------------------------------------------------------
E------------------------------------------------------------------------

E-14-15-14-12-14-12-10-12-10-8-12-10-8-----------------------------------
B--------------------------------------12-10-8---------------------------
G----------------------------------------------11-9-7--------------------
D-----------------------------------------------------10-9-7-------------
A------------------------------------------------------------10-9-7br----
E------------------------------------------------------------------------
Fin SOLO
E--------7-1211-(11)p7----------------------------------|--------------|
B-------8--------------8-------/17-19-20-17-19-20-22b-22~|--SE-REPITE---|
G------9----------------9--------------------------------|--EL-PRINCIPIO|
D-----9------------------9-------------------------------|--Y-EL-CORO---|
A-7-10--------------------10p7---------------------------|--------------|
E--------------------------------------------------------|--------------|

Ultimo solo
E------------------------------------------------------------------------
B------------------------------------------------------------------------
G--------------------------------------------------------14-16-17--------
D-----------------------------------------------14-16-17----------16-17--
A-----------12-14-15----------14-15-17-14-15-17--------------------------
E--12-14-15----------14-15-17--------------------------------------------

E-----------------------------------------17-19-20----------19-20-22-22~-
B-----------------------17-19-20-17-19-20----------19-20-22--------------
G-----16-17-19-16-17-19--------------------------------------------------
D--19--------------------------------------------------------------------
A------------------------------------------------------------------------
E------------------------------------------------------------------------

E------------||----------------------------------------------------------
B------------||----------------------------------------------------------
G—-9~----9--||----------------------------------------------------------
D—-9~----9--||----------------------------------------------------------
A—-7~----7--||----------------------------------------------------------
E------------||----------------------------------------------------------
rock
el tercer punteo: el chaqueño palavesino:

amor salvaje:

Los acordes de la intro son:

Em
Am B7 C B7 Em
Am B7 C B7 Em

intro

E||--------------------------------------0-2~3--------3--2-5-3-2-0--7--|
B||----------------------0-1-4-5-4-3---4------------5--------------8---|
G||------0-2-4-2-1-2---2--------------------------4--------------------|
D||--2-4----------------------------------------0----------------------|
A||--------------------------------------------------------------------|
E||--------------------------------------------------------------------|



--------2-3-2-3-4-5-----------5---5-7-8-11----------11--|
--5-4-5-------------5-------5-------------10------10----|
----------------------5---5-----------------11--11------|
------------------------7---------------------10--------|
--------------------------------------------------------|
--------------------------------------------------------|



--11-12-14--15-14-12-11--17-15-14-12-------------||
------------------------------------12-----------||
--------------------------------------12---------||
----------------------------------------14-------||

cuarto punteo: punteo de mario bross !!!!

ESTE TAB SE TOCA RAPIDO ARPEGEANDOLAS MOVIENDOLAS CUERDAS RAPIDO.


------------------------------------------------------|
------------------------------------------------------|
------------------------------------------------------|
------------------------------3-3-0-0-1-1--3-3-0-0-1-1|
--3-3-0-0-1-1--3-3-0-0-1-1----------------------------|


quinto punteo: la pantera rosa !!!!

1e-3-0-0-0--3-0-0----12-10-8-7-5-3-1-0-1-3-(3)-------------------------
2b---------------------------------------------------------------------
3g---------------------------------------------------------------------
4D---------------------------------------------------------------------
5A---------------------------------------------------------------------
6E---------------------------------------------------------------------

1e-3-0-0-0--3-0-0----12-10-8-7-5-3--4-5-(5)-----------------------------
2b----------------------------------------------------------------------
3g----------------------------------------------------------------------
4D----------------------------------------------------------------------
5A----------------------------------------------------------------------
6E----------------------------------------------------------------------

1e-7-5-5-5--10-7-7-7--10-7-10-7--12-8-8-8-------------------------------
2b----------------------------------------------------------------------
3g----------------------------------------------------------------------
4D----------------------------------------------------------------------
5A----------------------------------------------------------------------
6E----------------------------------------------------------------------

1e-3-0-0-0--3-0-0--12-10-8-7-5-3----------------------------------------
2b----------------------------------------------------------------------
3g----------------------------------------------------------------------
4D----------------------------------------------------------------------
5A----------------------------------------------------------------------
6E----------------------------------------------------------------------

Hay dos finales:

1e-10-8--(8)--- ó este: 1e-7-8--(8)-------------------------------------
2b----------------------------------------------------------------------
3g----------------------------------------------------------------------
4D----------------------------------------------------------------------
5A----------------------------------------------------------------------
6E----------------------------------------------------------------------
cumbia
y por ultimo..... el chavo del ocho!!!!!!jajajaja


1e-3-0-0-0--3-0-0----12-10-8-7-5-3-1-0-1-3-(3)-------------------------
2b---------------------------------------------------------------------
3g---------------------------------------------------------------------
4D---------------------------------------------------------------------
5A---------------------------------------------------------------------
6E---------------------------------------------------------------------

1e-3-0-0-0--3-0-0----12-10-8-7-5-3--4-5-(5)-----------------------------
2b----------------------------------------------------------------------
3g----------------------------------------------------------------------
4D----------------------------------------------------------------------
5A----------------------------------------------------------------------
6E----------------------------------------------------------------------

1e-7-5-5-5--10-7-7-7--10-7-10-7--12-8-8-8-------------------------------
2b----------------------------------------------------------------------
3g----------------------------------------------------------------------
4D----------------------------------------------------------------------
5A----------------------------------------------------------------------
6E----------------------------------------------------------------------

1e-3-0-0-0--3-0-0--12-10-8-7-5-3----------------------------------------
2b----------------------------------------------------------------------
3g----------------------------------------------------------------------
4D----------------------------------------------------------------------
5A----------------------------------------------------------------------
6E----------------------------------------------------------------------

HAY DOS FINALES ESTE:

1e-10-8--(8)--- ó este: 1e-7-8--(8)-------------------------------------
2b----------------------------------------------------------------------
3g----------------------------------------------------------------------
4D----------------------------------------------------------------------
5A----------------------------------------------------------------------
6E----------------------------------------------------------------------

PunteosBueno amigos hasta aca llego el post

punteos para guitarra...¡No olvides comentar el post!

folkloreCualquier Comentario Ofensivo, el usuario sera bloqueado

guitarraPor favor evitemos cualquier tipo Bardo y una suspension ¡Gracias!

rock

Fuentes de Información - punteos para guitarra...

El contenido del post es de mi autoría, y/o, es un recopilación de distintas fuentes.

Dar puntos
68 Puntos
Votos: 15 - T!score: 5/10
  • 2 Seguidores
  • 81.946 Visitas
  • 12 Favoritos

19 comentarios - punteos para guitarra...

@xjblack Hace más de 3 años +1
cumbia
@guille_motorhead Hace más de 3 años -1
buen aporte , gracias
@deathlordcutt Hace más de 3 años
julio_2112 dijo:
xjblack dijo:punteos para guitarra...

muchas imagenes pero nadie comenta nada....gracias por pasar!!!
@lokoleasy Hace más de 3 años
buena buena a ver si mis deditos llegan a hacer algo...
@Lovemetalcr Hace más de 3 años
[C.s 1.6] ser "PRO" en counter strike
@jmeza951 Hace más de 3 años
muajaja
yeso que rayos le inporta xD
@aguheinitz Hace más de 3 años
el de mario bross
@juan_albert0 Hace más de 2 años
sube massss...
te sigo, me quede sin puntos
@Ukrash Hace más de 1 año +1
el de la pantera rosa es el mismo del del chavo! subilo bien! y el del mario esta pobre!
@Ukrash Hace más de 1 año
jaja como quieras!
@julio_2112 Hace más de 1 año +1
@Ukrash Hacemos esto. Dentro de unos dias, subo nuevos punteos mejor armados...
@Ukrash Hace más de 1 año
@julio_2112 copado!
@guille_motorhead Hace más de 1 año +1
hace un año que comente aca estaba aprendiendo, como no me salio nada no me calente mas, 1 año despues vuelvo por la notificacion y me salen un par de cosas :3 cosas de la vida (?)
@julio_2112 Hace más de 1 año
Jajaja hace un año tambien queria ser new full user...
@david1559 Hace más de 1 año +1
el de la pantera rosa es igual al del chavo o me parece nomas???