Las mañanitas tradicionales Mexicanas

Que pasa amigos de Taringa, en esta ocasión subo un post un poco "sencillo o simple" si se le puede decir así.
Un post con la tablatura para guitarra de las mañanitas, lo que pasa es que llevo al rededor de 2 - 3 años tocando guitarra y es el caso que esta canción no me la había aprendido NUNCA, y pues es una básica para cualquier ocasión de cumpleaños claro esta jeje.
Decidí sacarla debido a que muy pronto la tendré que usar, al menos eso pienso jeje. Estuve buscando muchas tablaturas de las mañanitas en Internet, pero resulta que encontraba cosas demasiado burdas, mal hechas, simples (no estoy diciendo que esta no lo sea) y que no sonaban como en realidad debiera de sonar y también encontre una casi idéntica a esta, pero incompleta, lo que hice fue darle un poco de arreglos y hacerla a la medida en que generalmente la cantamos en México...


Espero que les guste:

cumpleaños


LAS MAÑANITAS TRADICIONALES

1----------------0------0-2-----0-2-3----3-3-2
2-----3---3-2-3---2-3-------3------------------
3-2-2---------------------------------------------
4--------------------------------------------------
5--------------------------------------------------
6--------------------------------------------------
Estas son las mañanitas que cantaba el rey David. Hoy por ser

1----0-----0--------0-2-3-0-------------
2------3-2---3-2-3---------3------------
3------------------------------------------
4------------------------------------------
5------------------------------------------
6-------------------------------------
día de tu santo te las cantamos aquí.

1-2-0-----0-2---2-0------0-2-------3--
2----3-2-3---3-----3-2-3-------3-3----
3-------------------------------------
4-------------------------------------
5-------------------------------------
6-------------------------------------
Despierta mi bien despierta mira que ya amaneció. Ya

1---3-5-3-2-------0-2-3-0-------------
2----------3-2-3---------3------------
3-------------------------------------
4-------------------------------------
5-------------------------------------
6-------------------------------------
los pajaritos cantan la luna ya se metió.

1--------------------------7-5--------
2---8----7-8-8--7-8-8----8-----8-7-8--
3-7-----------------------------------
4-------------------------------------
5-------------------------------------
6-------------------------------------
¡Qué linda está la mañana en que vengo a

1-5-5----5----5-5---5-5---5-8-7--7-5-5
2-------7----8-----8------------------
3-------------------------------------
4-------------------------------------
5-------------------------------------
6-------------------------------------
saludarte. Venimos todos con gusto y placer a

1---------
2-7-8-8---
3---------
4---------
5---------
6---------
felicitarte!


1--------------------------7-5--------
2---8----7-8-8--7-8-8----8-----8-7-8--
3-7-----------------------------------
4-------------------------------------
5-------------------------------------
6-------------------------------------
El dia en que tu naciste nacieron todas

1-5-5----5----5-5---5-5---5-8-7--7-5--
2-------7----8-----8------------------
3-------------------------------------
4-------------------------------------
5-------------------------------------
6-------------------------------------
las flores. Y en la pila del bauizmo cantaron los

1---------
2-7-8-8---
3---------
4---------
5---------
6---------
ruiseñores.

1----------------5-5---5-7-8---7-8-8-7-8----8-7-5
2--8-7---5-7---8---------------------------------
3------------------------------------------------
4------------------------------------------------
5------------------------------------------------
6------------------------------------------------
Ya viene amaneciendo ya la luz del dia nos dió.Levantate
1---------5-5----7-8-7--7-5----------
2-8---7-8------------------------7-8-
3------------------------------------
4------------------------------------
5------------------------------------
6------------------------------------
de mañana, mira que ya amaneció.


1--------------------------7-5--------
2---8----7-8-8--7-8-8----8-----8-7-8--
3-7-----------------------------------
4-------------------------------------
5-------------------------------------
6-------------------------------------
Volaron 7 palomas por toditas las

1-5-5----5----5-5---5-5---5-8-7--7-5-5
2-------7----8-----8------------------
3-------------------------------------
4-------------------------------------
5-------------------------------------
6-------------------------------------
ciudades. Hoy por ser dia de tu santo te deseamos

1---------
2-7-8-8---
3---------
4---------
5---------
6---------
felicidades.

1----------------5-5---5-7-8---7-8-8-7-8----8-7-5
2--8-7---5-7---8---------------------------------
3------------------------------------------------
4------------------------------------------------
5------------------------------------------------
6------------------------------------------------
Ya viene amaneciendo ya la luz del dia nos dió.Levantate
1---------5-5----7-8-7--7-5----------
2-8---7-8------------------------7-8-
3------------------------------------
4------------------------------------
5------------------------------------
6------------------------------------
de mañana, mira que ya amaneció.

1--------------------------7-5--------
2---8----7-8-8--7-8-8----8-----8-7-8--
3-7-----------------------------------
4-------------------------------------
5-------------------------------------
6-------------------------------------
Quisiera ser solecito para entrar por tu

1-5-5----5----5-5---5-5---5-8-7--7-5--
2-------7----8-----8------------------
3-------------------------------------
4-------------------------------------
5-------------------------------------
6-------------------------------------
ventana, y darte los buenos dias acostadita en tu

1---------
2-7-8-8---
3---------
4---------
5---------
6---------
cama.

1----------------5-5---5-7-8---7-8-8-7-8----8-7-5
2--8-7---5-7---8---------------------------------
3------------------------------------------------
4------------------------------------------------
5------------------------------------------------
6------------------------------------------------
Ya viene amaneciendo ya la luz del dia nos dió.Levantate
1---------5-5----7-8-7--7-5----------
2-8---7-8------------------------7-8-
3------------------------------------
4------------------------------------
5------------------------------------
6------------------------------------
de mañana, mira que ya amaneció.

1--------------------------7-5--------
2---8----7-8-8--7-8------8-----8-7-8--
3-7-----------------------------------
4-------------------------------------
5-------------------------------------
6-------------------------------------
Quisiera ser un San Juan, quisiera ser un San

1-5-5----5----5-5---5-----5-8-7--7-5--
2-------7----8-----8------------------
3-------------------------------------
4-------------------------------------
5-------------------------------------
6-------------------------------------
Pedro, para venirte a saludar con la musica del

1---------
2-7-8-8---
3---------
4---------
5---------
6---------
cielo.

1----------------5-5---5-7-8---7-8-8-7-8----8-7-5
2--8-7---5-7---8---------------------------------
3------------------------------------------------
4------------------------------------------------
5------------------------------------------------
6------------------------------------------------
Ya viene amaneciendo ya la luz del dia nos dió.Levantate
1---------5-5----7-8-7--7-5----------
2-8---7-8------------------------7-8-
3------------------------------------
4------------------------------------
5------------------------------------
6------------------------------------
de mañana, mira que ya amaneció.


1--------------------------7-5--------
2---8----7-8-8--7-8-8----8-----8-7-8--
3-7-----------------------------------
4-------------------------------------
5-------------------------------------
6-------------------------------------
De las estrellas del cielo tengo que bajarte

1-5------5----5-5---5-5---5-8-7--7-5--
2-------7----8-----8------------------
3-------------------------------------
4-------------------------------------
5-------------------------------------
6-------------------------------------
dos, una para saludarte, otra para decirte

1---------
2-7-8-----
3---------
4---------
5---------
6---------
adios.

1--------------------------7-5--------
2---8----7-8-8--7-8-8----8-----8-7-8--
3-7-----------------------------------
4-------------------------------------
5-------------------------------------
6-------------------------------------
Volaron cuatro palomas por toditas las

1-5-5----5----5-5---5-5---5-8-7--7-5-5
2-------7----8-----8------------------
3-------------------------------------
4-------------------------------------
5-------------------------------------
6-------------------------------------
ciudades, hoy por ser dia de tu santo te deseamos

1---------
2-7-8-8---
3---------
4---------
5---------
6---------
felicidades.

1----------------5-5---5-7-8---7-8-8-7-8----8-7-5
2--8-7---5-7---8---------------------------------
3------------------------------------------------
4------------------------------------------------
5------------------------------------------------
6------------------------------------------------
Con racimos y flores hoy te vengo a saludar. Hoy por se
1---------5-5----7-8-7--7-5----------
2-8---7-8------------------------7-8-
3------------------------------------
4------------------------------------
5------------------------------------
6------------------------------------
dia de tu santo, te venimos a cantar



Esto también puede usarse como un requinto de "Estas son las mañanitas que cantaba el rey david... te las cantamos aqui"
1-------7-7--5--7--8---5--7--8--10--5--7--8---------
2-------8-8--7--8--10--7--8--10-12--7--8--10--------
3--7-7-----------------------------------------------
4----------------------------------------------------
5----------------------------------------------------
6----------------------------------------------------

1--12--12--12--10--8---7--5--8---7--5--7--8---10--12--8---7--
2--13--13--13--12--10--8--7--10--8--7--8--10--12--13--10--8--
3---------------------------------------------------
4---------------------------------------------------
5---------------------------------------------------
6---------------------------------------------------


felicidades


Espero que les haya gusta y mas que nada servido, ya que como yo, al menos pienso que mas de uno que aunque sabiendo tocar no se sabe esta sencilla pero MUY necesaria canción.
Saludos.


mañanitas