Himno Nacional Argentino


Aca les dejo la tablatura:

e-------0-------------------------2-0-------0----------------
B---2---0-3-0-------------------2-2---4-3-0---2---------3-2--
G-2---2-1-----1-1-1-1-1-2-4-2-----------------2-4-2-1/2/4-2--
D-------2-------0-0-0-0---------------4----------------------
A—0-4-0-2-------2-2-2-2-----0-0---0---2-------0-----------0--
E-------0-----0-0-0-0-0-------------2-----4-------------0----

e---------------------------0-0---------0--------------------
B-0-3-3-2-2-0---------0-2-3---0-3-0-0-2-0-3-0-0-2/5-4-3-2/0--
G-1-4-4-2-2-1-----1-2---------1---------1---------6-5-4-----2
D-2---------2-2-4--------------------------------------------
A-------0-----------------------------------------7-6-5-0----
E---0-------------------------0---------0---------0----------

e-------------------------0-0--------------------------------
B---------------------2-2-2-2-2-2-3/2-0-0-0-0-0-0-0-0-0-0-0--
G-2-2-2-2-2-2-2-2-2-2-2-2-----2---------2--------------------
D-------2----------------------------------------------------
A-------------4-----0-------------------------2--------------
E---------------------------------0-----------------4-----0—-

e------------------------------------------------------------
B-0-0-0-3-3-0-0-2/0---------2/0---------3/2-0-0-0-0-3/2-0-0-0
G---1-1-4-4-1-1-----2-2-2-2-----2-2-2-2-------1-----------1--
D---------------------4-----------4-----------0-----------0--
A---------------0-----------0-----------0--------------------
E-0----------------------------------------------------------

e---0-----------0-----------2/0---------4/2-0-0-0-0-5--------
B-0---3-2-2-2-2---3-2-2-2-2-----3-3-3-3-------3-----2-------2
G---------0-----------0-----------2-----------4-----2-----2--
D---------2-----------2-----------4---------------------2----
A---0-----------0-----------0-----------0-----------0-4------
E------------------------------------------------------------

e-0-0-0-----------------9-12-12-12/10------------------------
B-----0-3-0----------10----------9----12/9-10-10-10-10-10-10-
G-----1-----1-2----9-------------9----------9--9--9—-9--9—-9-
D---------------11-------------------------11----11----11----
A-------------0-----------------------------0----------------
E-----0--------------------------0---------------------------

Oíd mortales el gri---to sagra----do libertad liber
e----5----0-2-4---5-5—-9---7--5-4--2-0------------0--------2-
B-10-5--------------2-10---9--7-5--3-2-----2----2----3---3---
G--9-6--2-----------2----------------2-----2-2--0----2---4---
D-11---------------------------------------2---------4---4---
A--0-0-0----------0--------0-----------0-4---0-----------2---
E------------------------------------------------------------

tad libertad Oíd el rui--do de ro--tas cade----nas
e-0---2-4--5---5---5-5-----------------------0-----2-2-----0-
B-3---3----2---2-----2-----0---2---2----2--2-2-4-----0-----0-
G-4---4----2-2-2-----2-2-2-----2---2-------2---2-----2-----1-
D--------------2-----------------2---2-----------------------
A----------0-----4---0---4-----0---4-------4-0-1-------------
E-0----------------------------------------------------0-0-4-

ved en trono a la noble-igualdad Ya su trono
e-----0---4---2---2--5--------2----0---0---0-0-0-2-4---5-0---
B-----0-------2---2-----4---4------0---0-----0---------5-1---
G-----1-------2---2-----2---2------1---1-----1---------5-----
D---2--------------------------------2---------2-4-6---7-----
A-2-----------0---------2---2----------2---------------0-----
E-----4----------------------------0-----4---0---------------

Digní—simo-abrieron las provincias unidas del sud
e-0-1-0------------0---0---0--5--7---7-8---------0---0---0-0-
B-1-3-1-3--1---1---0---0------5--5-----5-4---4---0---0-----0-
G-------4--2---2---1---1------5--7-----5-2-------1---1-----1-
D--------------1---2----------7--6-----------------2---------
A----------------0-2----------0--------0-------------2-------
E------------------0---0-----------------1-------0-----4---0-

Y los li-bres del mun-do responden al gran pueblo ar
e-0—-0---5---5-----5—-7---7---7—-8---5-------0—-0----5---5---
B------------5------------0----------5-------------------5---
G------------5------------7----------5-------------------5---
D------------------------------------------------------------
A----------7-----7------7----------7---7---7-----------7---7-
E--------0------------0----------0-------0-----------0-------

gentino salud al gran pueblo argenti-no salud
e-5-7-7---7-8---5-----5----8---8—-7—-7—5—-7-5-4-5—-0---0---0-
B-----0---------5-----5--------------5--------5----0---0-----
G-----7---------5-----5--------------5--------4----1---1-----
D--------------------------------------------------2-2-------
A-------7-----7---7------------0----------6------------2-----
E-----------5-------5------------------------------------4---

Y-- los libres del mun-do responden al gran pueblo
e-0-0-2—-4---5—-5---4---2-0------0----------------2----0--5--
B-0-5-4—-3---2—-2---5---3-2-3—-2-2---3---------3—-3----2--2--
G-1-------------2-----------4—-3-----4---------4-------------
D------------------------------------4-----------------------
A------------0----------0--------2---------------------0-----
E-0------------------------------------2/4/6/7---------------

Argenti---no salud y-- los libres del mun-do respon-
e----0—-0-------------------0-2--4---5—-5---4---2-0-------0--
B-2—-2—-2-3-2---0-2---------5-4--3---2—-2---5---3-2-3--2—-2--
G-2-------4-2---1-2-2-------------------2-----------4--3-----
D---------------------2--------------------------------------
A-----------------0-----4-0----------0----------0---------2--
E------------------------------------------------------------

den al gran pueblo argentino salud
e----------------2---0—-5—-5—-9—-9-5—-4-5---5---5-5-0--------
B-3----------3---3---2—-2—-2—------2—-0-2---2-----2---2-0/---
G-4----------4----------------9—-9------2-2-------------1/---
D-4-----------------------------------------2-------------2-2
A--------------------0------------------0-----4---0----------
E---2-4-6-7----------------------0----------------------0/---

e-----------------------0-2-4/5-2/0-0-----------------------5
B/0-2-3-2-3-0-2---0-2-3---------------2-0/---/0-2-3-2-3-0---2
G/1-2-4-3-4-1-2-2-----------------------1/---/1-2-4-3-4-1-2-2
D-----------------------------------------2-2-2---------2----
A-2-----------0-------------------------------------------0-0
E/0---0---0-----------------------------0/---/0---0---0------

e------------------------------0-----------------0-2-4-0-5---
B------------------------0-2-3-0-5-4-5-4-5-4-5-4---------2-10
G-2--2-2-1-2-1-2-1-2-1-2-------1-------------------------2---
D------------------------------------------------------------
A-0—-0-0-------0-------0---------------------------------0---
E------------------------------0-0-------0-------0-----------

Sean eternos los laureles
e----------9-9-10-------9--5-5-5-0---0-5-------------5-5-----
B-9-10-12-10------12-12----2-2-2-------2--5---2---5--2-------
G----------9-------9---------2-2-------2--2---2---2--2-------
D-----------------------------------------2---2---2----------
A----------0---------------0-0-0-------0------4------0-------
E------------------0-------------------------------------5/4/

que supimos conseguir que supimos conseguir
e-------0---0-5-----------5-----------5---9-7-5---4--2--0----
B-------------2--5--2--5--2-----------5-----5-2---0--0--0----
G-------------2--2--2--2--2-----------6-----4-2------2--1----
D----------------2--2--2----------------------------------2--
A-------------0-----4-----0-----------0-----------2--2-------
E/5/4/5---------------------5/4/5/4/5-------4-2---------0---0

coronados de glo-ria viva---------mos o-- juremos con gloria
e-5-4-4-2—-0---0-----------------------0-2—-4-5-5---5---4—-4-
B-7-5-5-3—-2---2-3-3---2-2-5-4-5-7-5-0----------2----------3-
G----------------4-4---2-2-----------1----------2----------4-
D------------------------------------------------------------
A-----0---------------------------------------0--------------
E------------------------0-----------0------------------0----

morir o jure--mos con gloria morir o jure--mos con gloria
e-4-5--------------------0--4--4-5--------------------0-4----
B---2—-3—-3-3/2-0--------0--3----2—-3—-3-3/2-0--------0-3----
G---2—-4------------2----1--4----2--4------------2----1-4----
D------4----0-----------------------4----0-------------------
A---0—-2-------------------------0—-2------------------------
E------------------------0--0-------------------------0-0----

morir
e-4-5--9----9----9-----5------
B---2----10---10---10--2------
G---2-----9----9----9--2--2-2-
D--------11---11---11---------
A---0-----0----0----0--0--0-0-
E-----------------------------



Espero que les alla servido . Si les gusto comenten
Fuente: http://lacuerda.net/tabs/h/himnos_nacionales/?c=hnac002

P.D: Esta versión esta en La mayor pero la version original es en Sol para tocarla en Sol pueden afinar la guitarra un tono mas abajo es decir la 6º en RE, la 5º en Sol.