Estas son unas de las tablaturas más sencillas que conozco. Para quienes tocan guitarra, no se desesperen porque no les sale a la primera, si quieren ser realmente buenos, se requiere mucha práctica y no desistir.




Adelita / Tarrega

Tablaturas sencillas


link: http://www.youtube.com/watch?v=rd6xZba07rA


Tema 1: menor

E |-12-p11----7-----------|-10-p8---------------|-8-p7---------------|
B |----------------8------|----------7----------|---------------8----|
G |----------------9------|---------------9-----|---------8-----8----|
D |-----------------------|---------------10----|---------------7----|
A |-----------------------|-0-------------------|--------------------|
E |-0---------------------|---------------------|-7------------------|

E |-----------------0-------7--|-12-p11----7----------|-10-p8---------------|
B |-7h8p7-------0-------8------|----------------8-----|----------7----------|
G |---------9------------------|----------------9-----|---------------9-----|
D |----------------------------|----------------------|---------------10----|
A |----------------------------|----------------------|-0-------------------|
E |-----0----------------------|-0--------------------|---------------------|

E |-8--p7------------------|----------------------|
B |-----------------8------|-5--------------------|
G |----------8------8------|-4--------------------|
D |-----------------7------|-5--------------------|
A |------------------------|----------------------|
E |-7----------------------|--------0-------------|


Tema 2: mayor

E |-4---------7---------------|-4---------7---------------|
B |-------5---------5----7----|-------5---------5----7----|
G |-------4---------6---------|-------4---------6---------|
D |-------6-------------------|-------6-------------------|
A |-----------------0---------|-----------------0---------|
E |-0-------------------------|-0-------------------------|

E |-4----7----12----11--11h12p11---9---|-9h11p9----7----------------------|
B |------------------------------------|----------------10----7-----------|
G |-4-------------------------9--------|------8--------------------8------|
D |------------------------------------|------7-------------------------9-|
A |---------------------------9--------|----------------------------------|
E |-0----------------------------------|------7---------------------------|

E |-------0-------0--------|--------------------------------------|
B |-------0-------2--------|--------------------------------------|
G |------------------------|-1----4--/--13----8--9h11p9-----------|
D |-6--------9----2----4---|--------------------------8-------8---|
A |---------------0--------|--------------------------------------|
E |-0----------------------|-0------------------------8-----------|

E |---------------------------|-0----------------------|
B |---------------------4-----|-0----------------------|
G |----------6---4------2-----|-1----------------------|
D |-9--------7---6------4-----|-2----------------------|
A |---------------------2-----|------------------------|
E |-7-------------------------|--------0---------------|



El sueño de la muñequita/ Agustín Barrios

Tablaturas


link: http://www.youtube.com/watch?v=AfJ5I0t3CNM


E||-----------------|-----------------|--5--------------|-----------------|
B||------5----8--6--|--5--------------|-------5----5----|--9--------------|
G||-----------------|-------5----5----|-------5----5----|-------7----7----|
D||-----------------|-------7----7----|-----------------|-------9----9----|
A||-----------------|--0--------------|-----------------|-----------------|
E||-----------------|-----------------|--0--------------|--7--------------|


-----------------|--0--------------|-----------------|-----------------|
------------6----|-------3----3----|------------3----|--1--------------|
-------7---------|-------4----4----|-------4---------|-------2----2----|
-----------------|--6--------------|-----------------|-------2----2----|
--7--------------|-----------------|-----------------|--0--------------|
-----------------|-----------------|--0--------------|-----------------|


------------------|-----------------|--5--------------|-----------------|
-------5----8--6--|--5--------------|-------5----5----|--8--------------|
------------------|-------5----5----|-------5----5----|-------9----9----|
------------------|-------7----7----|-----------------|-------9----9----|
------------------|--0--------------|-----------------|-----------------|
--0---------------|-----------------|--0--------------|--7--------------|


-------------7-----|----------7-------|--------------7-----|----------7----|
----------8-----8--|--7----------7----|-----------7-----7--|--6----------6-|
-------9-----------|-------8----------|--------8-----------|-------7-------|
----9--------------|-------7----------|-----7--------------|-------6-------|
-------------------|--9---------------|--------------------|---------------|
-7-----------------|------------------|--7-----------------|--7------------|


------------------|-----------------|--5--------------|--4--------------|
-------5----8--6--|--5--------------|-------5----5----|-------3----3----|
------------------|-------5----5----|-------5----5----|-------4----4----|
------------------|-------7----7----|-----------------|-----------------|
------------------|--0--------------|-----------------|--2--------------|
--0---------------|-----------------|--0--------------|-----------------|


-----------------|-----------------|-----------------|-----------------|
-------3----6----|--5--------------|------------3----|--1--------------|
-----------------|-------4----4----|-------4---------|-------2----2----|
-----------------|-------2----2----|-----------------|-------2----2----|
-----------------|-----------------|-----------------|--0--------------|
--0--------------|--4--------------|--0--------------|-----------------|




-----------------|----------0--1----|-----------------|-------------0----|
--2--------------|--3---------------|-------0----3----|--1-------3-------|
-------2----2----|-------2----------|-------2---------|-------2----------|
-------2----2----|-------0----------|-----------------|--2---------------|
-----------------|------------------|--2--------------|------------------|
--3--------------|--1---------------|-----------------|------------------|


-----------------|------------------|-----------------|-----------------|
------------1----|--0-------1--3----|------------0----|-----------------|
-------2---------|------------------|-----------------|--2--------------|
-----------------|-------1----------|-------2---------|-------2---------|
-----------------|------------------|-----------------|------------3----|
--0--------------|--2---------------|--4--------------|--5--------------|


--------------||-----------------|-------0----0----|-----------------|
--------------||-------1----1----|-------1----1----|-------3----3----|
--------------||-------2----2----|-------2----2----|-------1----1----|
--------------||--2--------------|-----------------|-----------------|
--------------||-----------------|--0--------------|--2--------------|
--5-----------||-----------------|-----------------|-----------------|


-----------------|-----------------|-----------------|-----------------|
-------3----3----|-------0----0----|-------0----0----|-------1----1----|
-------1----1----|-------1----1----|-------1----1----|-------2----2----|
-----------------|--3--------------|--2--------------|-----------------|
-----------------|-----------------|-----------------|--3--------------|
--0--------------|-----------------|-----------------|-----------------|


-------1----1----|-----------------|-----------------|-------1----1----|
-----------------|-------8----8----|-------8----8----|-------3----3----|
-------1----1----|-------6----6----|-------6----6----|--2--------------|
-----------------|--7--------------|-----------------|-----------------|
--0--------------|-----------------|--0--------------|-----------------|
-----------------|-----------------|-----------------|-----------------|


-------1----1----|-------1----1----|-------1----1----|-------0----0----|
-----------------|-------0----0----|-------0----0----|-------1----1----|
-------2----2----|--0--------------|-----------------|--0--------------|
--0--------------|-----------------|-----------------|-----------------|
-----------------|-----------------|-----------------|-----------------|
-----------------|-----------------|--3--------------|-----------------|


-------0----0----|-------1----1----|-----------------|-----------------|
-------1----1----|-----------------|-------3----3----|-------1----1----|
-----------------|-------2----2----|-------1----1----|-------2----2----|
-----------------|--0--------------|-----------------|--2--------------|
--3--------------|-----------------|--2--------------|-----------------|
-----------------|-----------------|-----------------|-----------------|


-----------------|-----------------|-----------------|-----------------|
-------1----1----|-------0----0----|-------3----3----|-------1----1----|
-------2----2----|-------2----2----|-------4----4----|-------2----2----|
-----------------|-----------------|-------2----2----|-------2----2----|
-----------------|-----------------|-----------------|--0--------------|
--0--------------|--2--------------|--4--------------|-----------------|


-------5--------||
-------5--------||
-------5--------||
----------------||
--0-------------||
----------------||



Preludio en C/ Agustín Barrios

Tabs


link: http://www.youtube.com/watch?v=t-I4OFvlZnQ&feature=related



E||------4---3-------4---3---|------4---3-------4---3---|
B||--------4-----------4-----|--------3-----------3-----|
G||----0-------0---0-------0-|----0-------0---0-------0-|
D||--------------------------|--------------------------|
A||--3-----------3-----------|--2-----------2-----------|
E||--------------------------|--------------------------|



|------3---1-------3---1---|------1-----------1-------|
|--------0-----------0-----|--------1-4---------1-4---|
|----0-------0---0-------0-|----0-------0---0-------0-|
|--0-----------0-----------|--------------------------|
|--------------------------|--3-----------3-----------|
|--------------------------|--------------------------|


C5-------------------- C4--------------------
|--------------------------|--------------------------|
|------6-----------6-------|------4-----------4-------|
|--------5-8---------5-8---|--------5-7---------5-7---|
|----5-------5---5-------5-|----4-------4---4-------4-|
|--------------------------|--------------------------|
|--6-----------6-----------|--5-----------5-----------|


C3-----------------------------------------------
|--------------------------|--------------------------|
|------4---3-------4---3---|------4---3-------4---3---|
|--------5-----------5-----|--------5-----------5-----|
|----3-------3---3-------3-|----5-------5---5-------5-|
|--------------------------|--------------------------|
|--4-----------4-----------|--3-----------3-----------|


C3-----------------------------------------------
|--------------------------|--------------------------|
|------4---3-------4---3---|------3-----------3-------|
|--------5-----------4-----|----------5-----------5---|
|----3-------3---3-------3-|--------5-----------5-----|
|--------------------------|----6-------6---6-------6-|
|--3-----------3-----------|--3-----------3-----------|


C3-------------------- C1--------------------
|--------------------------|--------------------------|
|--------------------------|--------------------------|
|------5---3-------5---3---|------3---1-------3---1---|
|--------3-----------3-----|--------1-----------1-----|
|----5-------5---5-------5-|----3-------3---3-------3-|
|--3-----------3-----------|--3-----------3-----------|





|--------------------------|--------------------------|
|--------------------------|------3---0-------3---0---|
|------1---0-------1---0---|--------0-----------0-----|
|--------0-----------0-----|----0-------0---0-------0-|
|----2-------2---2-------2-|--------------------------|
|--3-----------3-----------|--1-----------1-----------|


C1--------------------
|------3-----------4---3---|------3---1-------3---1---|
|----------2---------2-----|--------1-----------1-----|
|----0---3---0---3-------3-|----1-------1---1-------1-|
|--------------------------|--------------3-----------|
|--------------------------|--------------------------|
|--0-----------0-----------|--1-----------------------|


C1--------------------
|------4---1-------4---1---|-------11---8---------11---8----|
|--------1-----------1-----|----------9--------------9------|
|----1-------1---1-------1-|----10--------10---10--------10-|
|--1-----------1-----------|--0--------------0--------------|
|--------------------------|--------------------------------|
|--------------------------|--------------------------------|


C6-----------------------------------------------
|------9---6-------9---6---|------9---6-------9---6---|
|--------8-----------8-----|--------8-----------8-----|
|----8-------8---8-------8-|----6-------6---6-------6-|
|--------------------------|--------------------------|
|--6-----------6-----------|--7-----------7-----------|
|--------------------------|--------------------------|


C8---------------------------- C5---------------------
|----------------------------------|------8-----------8-------|
|-------11----9---------11----9----|--------6-9---------6-9---|
|----------10--------------10------|----5-------5---5-------5-|
|----10---------10---10---------10-|--------------------------|
|--8---------------8---------------|--5-----------5-----------|
|----------------------------------|--------------------------|






C7------------------------ C8--------------------------
|-------7-------------7--------|--------8--------------8--------|
|------------8-------------8---|------------8--------------8----|
|---------10------------10-----|----------8--------------8------|
|-----9--------9----9--------9-|-----10-------10----10-------10-|
|--10------------10------------|--10-------------10-------------|
|------------------------------|--------------------------------|






C8------------------------- C3--------------------
|-------8-------------8--------|------6---4-------6---4---|
|-----------9-------------9----|--------3-----------3-----|
|---------8-------------8------|----3-------3---3-------3-|
|----10-------10---10-------10-|--3-----------3-----------|
|--8-------------8-------------|--------------------------|
|------------------------------|--------------------------|


C6-------------------- C1--------------------
|------6-----------6-------|------4---1-------4---1---|
|----------8-----------8---|--------3-----------3-----|
|--------8-----------8-----|----1-------1---1-------1-|
|----8-------8---8-------8-|--3-----------------------|
|--6-----------6-----------|--------------------------|
|--------------------------|--------------1-----------|


C3-----------------------------------------------
|------3-----------3-------|--------------------------|
|----------4-----------4---|------6---3-------6---3---|
|--------5-----------5-----|--------4-----------4-----|
|----5-------5---5-------5-|----5-------5---5-------5-|
|--------------------------|--------------------------|
|--3-----------3-----------|--3-----------3-----------|


C5--------------------------------------
|--------------------------|-------------------||
|--------------------------|-------------------||
|------7---5-------8---5---|------8---5--------||
|--------5-----------5-----|--------5----------||
|----6-------6---6-------6-|----6-------6------||
|--8-----------8-----------|--8-----------8----||



The call of ktulu/ Metallica

guitarra


link: http://www.youtube.com/watch?v=fLFijHPoQHo


D#||-----5--------------5-----|-----5--------------5-----|
A#||-----------6-----5-----6--|-----------6-----5-----6--|
F#||--------7-----------------|--------7-----------------|
C#||--0-----------7-----------|--0-----------7-----------|
G#||--------------------------|--------------------------|
D#||--------------------------|--------------------------|



-----6--------------6-----|-----6--------------6-----|
-----------6-----------6--|-----------6-----------6--|
--------7--------9--------|--------7--------9--------|
--0-----------8-----------|--0-----------8-----------|
--------------------------|--------------------------|
--------------------------|--------------------------|



-----8---------------8-----|-----8---------------8-----|
-----------8------------8--|-----------8------------8--|
--------9---------9--------|--------9---------9--------|
--0-----------10-----------|--0-----------10-----------|
---------------------------|---------------------------|
---------------------------|---------------------------|



-----5--------------5-----|-----5--------------5-----|
-----------6-----5-----6--|-----------6-----------6--|
--------7-----------------|--------7--------7--------|
--0-----------7-----------|--0-----------7-----------|
--------------------------|--------------------------|
--------------------------|--------------------------|



-----5--------------5-----|-----5--------------5-----|
-----------6-----5-----6--|-----------6-----5-----6--|
--------7-----------------|--------7-----------------|
--0-----------7-----------|--0-----------7-----------|
--------------------------|--------------------------|
--------------------------|--------------------------|



-----6--------------6-----|-----6--------------6-----|
-----------6-----------6--|-----------6-----------6--|
--------7--------9--------|--------7--------9--------|
--0-----------8-----------|--0-----------8-----------|
--------------------------|--------------------------|
--------------------------|--------------------------|



-----8---------------8-----|-----8---------------8-----|
-----------8------------8--|-----------8------------8--|
--------9---------9--------|--------9---------9--------|
--0-----------10-----------|--0-----------10-----------|
---------------------------|---------------------------|
---------------------------|---------------------------|



-----5--------------5-----|-------------------||---------------0-----------|
-----------6-----5-----5--|--6----------------||------------0-----0--------|
--------7-----------------|-------------------||*--------5-----------5-----|
--0-----------7-----------|--0----------------||*-----7--------------------|
--------------------------|-------------------||---0--------------------7--|
--------------------------|-------------------||---------------------------|


3x
--------------0------------||------------1-----------1--|
-----------0-----0---------||---------3-----------3-----|
--------5-----------5-----*||*-----2-----------3--------|
-----7-----------------7--*||*--0-----------0-----------|
--6------------------------||---------------------------|
---------------------------||---------------------------|


3x
-----------1-----------5---||---------------0-----------|
--------3-----------3------||------------0-----0--------|
-----4-----------5--------*||*--------5-----------5-----|
--0-----------0-----------*||*-----7--------------------|
---------------------------||---0--------------------7--|
---------------------------||---------------------------|


3x
--------------0------------||------------1-----------1--|
-----------0-----0---------||---------3-----------3-----|
--------5-----------5-----*||*-----2-----------3--------|
-----7-----------------7--*||*--0-----------0-----------|
--6------------------------||---------------------------|
---------------------------||---------------------------|


2x
-----------1-----------5---||-----------1-----------1--|
--------3-----------3------||--------3-----------3-----|
-----4-----------5--------*||-----2-----------3--------|
--0-----------0-----------*||--0-----------0-----------|
---------------------------||--------------------------|
---------------------------||--------------------------|



-----------1-----------5--|--------------0-----------|
--------3-----------3-----|-----------0-----0--------|
-----4-----------5--------|--------5-----------5-----|
--0-----------0-----------|-----7--------------------|
--------------------------|--0--------------------7--|
--------------------------|--------------------------|








--------------0-----------|--------------0-----------|
-----------0-----0--------|-----------0-----0--------|
--------5-----------5-----|--------5-----------5-----|
-----7-----------------7--|-----7--------------------|
--6-----------------------|--0--------------------7--|
--------------------------|--------------------------|



--------------0-----------|--------------0-----------|
-----------0-----0--------|-----------0-----0--------|
--------5-----------5-----|--------5-----------5-----|
-----7-----------------7--|-----7--------------------|
--6-----------------------|--0--------------------7--|
--------------------------|--------------------------|



--------------0-----------|--------------0-----------|
-----------0-----0--------|-----------0-----0--------|
--------5-----------5-----|--------5-----------5-----|
-----7-----------------7--|-----7--------------------|
--6-----------------------|--0--------------------7--|
--------------------------|--------------------------|



--------------0-----------|-----------1-----------1--|
-----------0-----0--------|--------3-----------3-----|
--------5-----------5-----|-----2-----------3--------|
-----7-----------------7--|--0-----------0-----------|
--6-----------------------|--------------------------|
--------------------------|--------------------------|



-----------1-----------5--|-----------1-----------1--|
--------3-----------3-----|--------3-----------3-----|
-----4-----------5--------|-----2-----------3--------|
--0-----------0-----------|--0-----------0-----------|
--------------------------|--------------------------|
--------------------------|--------------------------|



-----------1-----------5--|-----------1-----------1--|
--------3-----------3-----|--------3-----------3-----|
-----4-----------5--------|-----2-----------3--------|
--0-----------0-----------|--0-----------0-----------|
--------------------------|--------------------------|
--------------------------|--------------------------|



-----------1-----------5--|-----------1-----------1--|
--------3-----------3-----|--------3-----------3-----|
-----4-----------5--------|-----2-----------3--------|
--0-----------0-----------|--0-----------0-----------|
--------------------------|--------------------------|
--------------------------|--------------------------|



-----------1-----------5--|--------------0-----------|
--------3-----------3-----|-----------0-----0--------|
-----4-----------5--------|--------5-----------5-----|
--0-----------0-----------|-----7--------------------|
--------------------------|--0--------------------7--|
--------------------------|--------------------------|



--------------0-----------|--------------0-----------|
-----------0-----0--------|-----------0-----0--------|
--------5-----------5-----|--------5-----------5-----|
-----7-----------------7--|-----7--------------------|
--6-----------------------|--0--------------------7--|
--------------------------|--------------------------|



--------------0-----------|--------------0-----------|
-----------0-----0--------|-----------0-----0--------|
--------5-----------5-----|--------5-----------5-----|
-----7-----------------7--|-----7--------------------|
--6-----------------------|--0--------------------7--|
--------------------------|--------------------------|



--------------0-----------|--------------0-----------|
-----------0-----0--------|-----------0-----0--------|
--------5-----------5-----|--------5-----------5-----|
-----7-----------------7--|-----7--------------------|
--6-----------------------|--0--------------------7--|
--------------------------|--------------------------|



--------------0-----------|-----------1-----------1--|
-----------0-----0--------|--------3-----------3-----|
--------5-----------5-----|-----2-----------3--------|
-----7-----------------7--|--0-----------0-----------|
--6-----------------------|--------------------------|
--------------------------|--------------------------|



-----------1-----------5--|-----------1-----------1--|
--------3-----------3-----|--------3-----------3-----|
-----4-----------5--------|-----2-----------3--------|
--0-----------0-----------|--0-----------0-----------|
--------------------------|--------------------------|
--------------------------|--------------------------|



-----------1-----------5--|-----------1-----------1--|
--------3-----------3-----|--------3-----------3-----|
-----4-----------5--------|-----2-----------3--------|
--0-----------0-----------|--0-----------0-----------|
--------------------------|--------------------------|
--------------------------|--------------------------|






-----------1-----------5--|-----------1-----------1--|
--------3-----------3-----|--------3-----------3-----|
-----4-----------5--------|-----2-----------3--------|
--0-----------0-----------|--0-----------0-----------|
--------------------------|--------------------------|
--------------------------|--------------------------|



-----------1-----------5--|--------------------------|
--------3-----------3-----|--------------------------|
-----4-----------5--------|--------------------------|
--0-----------0-----------|-----------5--5--5--5--9--|
--------------------------|--7--7--7--5--7--5--7--7--|
--------------------------|--5--5--5-----------------|



¡Espero que les sirva!