El post que buscas se encuentra eliminado, pero este también te puede interesar

tablaturas de solos faciles

buen pues es mi primer post con tablaturas y de solos espero les guste

1) Nivana-About a girl

Es muy sencillo

E|--------------------------------------|
B|--------------------------------------|
G|------------------9----------12-----|
D|-------5-7-7-9-9-9-/12-12-12-| X 4
A|---5-7-------------------------------|
E|-0------------------------------------|

2) Foghat-Slow ride


E|-5s3s5~~------------------------------5s3s5~~--------------------------------|
B|------------5s3s5~---------5-----------------------5s3s5~-----------5--------|
G|-------------------6s4s6~-----6b----------------------------6s4s6~----6b----|
D|------------------------------------------7~~------------------------------------7-|
A|---------------------------------------------------------------------------------------|
E|----------------------------------------------------------------------------------------|

E|----------------------5--------------------------------------------10--8--10b--8-----|
B|---------------------------------------------------------------10--------------------10-|
G|----6--7--8--9~---------7br-6b-------------6-7-8-9~----------------------------|
D|-7------------------------------------7~---7-------------------------------------------|
A|-------------------------------------------------------------------------------------------|
E|-------------------------------------------------------------------------------------------|


3) Marilyn manson-sweet dreams

E|----5^--------8^-----11----8---6-----------------------------------------------------------|
B|-----------------------------11---------8-------------------------------------------------------|
G|-----------------------------------------------5---3---5----------------------------------------|
D|------------------------------------------------------------3---3--5--3--5--3--5-------------|
A|---------------------------------------------------------------------------------------3--3------|
E|---------------------------------------------------------------------------------------------------|

E|----------------------------------1----6-8--6---11---11--13--------------------------------|
B|---------------------------1--4------------------------------------------------------------------|
G|--------------------------------------------------------------------------------------------------|
D|----------1--3---3^----------------------------------------------------------------------------|
A|--1--3-------------------------------------------------------------------------------------------|
E|---------------------------------------------------------------------------------------------------|


ese es el solo mas facil que me se despues del siguiente

4) Nirvana-Smells like teen spirit

E|------------------------------------------------------------------------------------------|
B|---1--4--4/6-------4b6b4--2-1--2-1----------------------------------------------|
G|-----------------1---------------------------3-1---3/5--3----------------------------|
D|------------------------------------------------------------------------------------------|
A|------------------------------------------------------------------------------------------|
E|------------------------------------------------------------------------------------------| (x2)



5) RHCP-Californication

E----------------9----------------------------------9--------------------------------------------
B---------10--------------------------------10--------------------------------------------------
G--------------------------11b--11---------------------11b-----11--11--11--11---9-----------
D----------------------------------------------------------------------------------------11--11-
A------------------------------------------------------------------------------------------------
E------------------------------------------------------------------------------------------------

E----------------------------------------------------------9------12----14---------9--12-------
B---------------------9----------------------------10-------------------------10---------------
G----------------9-----------11---9-------------------------------------------------------------
D-----9--11---------------------------------11--------------------------------------------------
A------------------------------------------------------------------------------------------------
E------------------------------------------------------------------------------------------------

E-----14b----14------17----16---14---------------14------------------------------------------
B------------------------------------------17---------------17-------14-----17---14-14-14-14
G------------------------------------------------------------------------------------------------
D------------------------------------------------------------------------------------------------
A------------------------------------------------------------------------------------------------
E------------------------------------------------------------------------------------------------

E--------------------14b-----12------------12-----------------------------12-------------------
B----17-----14-----------------------14-------------14-----12-----------------15---14--------
G--------------------------------------------------------------------14------------------14-----
D------------------------------------------------------------------------------------------------
A------------------------------------------------------------------------------------------------
E------------------------------------------------------------------------------------------------

es de practica pero es facil

6) Withe lion-When the children cry

E|------------------------|---------12-------------|------------------------|
B|-----------------15^----|-(15)----------13----15-|---12-------------------|
G|-----------12-----------|------------------------|-------14-p-12---11-----|
D|-----12-----------------|------------------------|----------------------12|
A|------------------------|------------------------|------------------------|
E|------------------------|------------------------|------------------------|


E|-----------*T------T----|--------17^---(17)--|19^-(19)-19-19-20^-20-20-19-20|
B|----15^----17-15---17-13|-p-12---------------|------------------------------|
G|--X---------------------|--------------------|------------------------------|
D|X-----------------------|--------------------|------------------------------|
A|------------------------|--------------------|------------------------------|
E|------------------------|--------------------|------------------------------|
* when taping the 17th, hold bend while taping releasing back to the 15th


E|19----------------------|------------------------|------------------------|
B|---20^-(20)-19-17-------|-15^--15p13p12--13p12---|-----------15^--15^--15-|
G|----------------19-(19)|---------------------14^|-(14)-p-12--------------|
D|------------------------|------------------------|------------------------|
A|------------------------|------------------------|------------------------|
E|------------------------|------------------------|------------------------|

E|------------------------||
B|-(15)---DIVE-----------||
G|--------WITH-----------||
D|--------WHAMMY---------||
A|---------BAR-----------||
E|------------------------||

6 comentarios - tablaturas de solos faciles

@Ignacio_11 +1
Ignacio_11 dijo:muy buenos me sirvieron +10

a mi me sirvieron porque los entiendo pero ay cosas como: X, 15^ (15), *T, 15^, 4b, 5s, 7~, 7~~ deberias poner que signifacan para que todos las entiendan
@lexicon_devil
muy bueno!!!hace un tiempito qe no toco la guitarra asi qe ay temas qe ay aca qe ya no me acuerdo,gracias!no te doy punto x qe soy novato,o sino te los daria ajajajajaja
@gowys +1
"S" significa slide no hammer on! y los parentesis adentro de una nota osea (15) significa que la nota es opcional, ya que el sonido no cambiaria mucho si no la tocas!
@LucasM94
tambien puede significar que haces durar la nota
@miironmaiden
@LucasM94 Ya he aprendido un poco mas de guitarra xD La s en realidad solo significa slide, que deslizas el dedo desde el traste del numero inicial hasta el numero de traste siguiente, cuadno la dejas durar (la nota obvio) no sale nada, eso ya esta deicho por la cancion no por la tablatura (O en dado caso cuadno se leen partituras) vendria siendo algo asi

S=Slide
H=Hammer on
P= pull off
~=Vibrato

Saludos!