El post que buscas se encuentra eliminado, pero este también te puede interesar

tablaturas para guitarra-actualizado

HOLA GENTE TARINGUERA RESULTA QUE TENGO MAS TABLATURAS Y ACÁ LES DEJO MI POST ACTUALIZADO Y MEJORADO LO VAN A PODER ENTENDER JAJA .

Seven Nation Army–White Stripes(intro):

E|-7-7-10-7-5-3-2|

queda mejor con la 6°


link: http://www.youtube.com/watch?v=0J2QdDbelmY&ob=av3e

Smoke on the water-Deep Purple(intro):

G|0-3-5-0-3-6-5-0-3-5-3-0|
D|0-3-5-0-3-6-5-0-3-5-3-0|

lo pueden hacer con la 5° sola queda muucho mejor


link: http://www.youtube.com/watch?v=arpZ3fCwDEw&ob=av3n

Satisfaction–Rolling Stones(intro):

E|-2-2--2-4-5-555-4444|

con la 6° esta mejor


link: http://www.youtube.com/watch?v=qXcNQTa3zgs

Feliz Cumpleaños o Payaso Plin Plin:

e|------------1-0-----------3-1-------8-5-1-1-0---6-6-5-1-3-1|
B|-1-1-3-1------1-1-3-1------1-1---------------3---------------|


link: http://www.youtube.com/watch?v=1YSbBoMg8bk&feature=related

El Himno a la Alegría:

e|-0-0-1-3-|-3-1-0---|--------0--0----|
B|-----------|--------3-|-1-1-3-------3-|

e|-0-0-1-3-|-3-1-0-----|---------0-|------|
B|-----------|----------3-|-1-1-3----|-3-1-|

e|---0------|-0-1-0------|-0-1-0-----|--------|
B|-3--1-3-|---------1-3-|---------3-|-1-3---|
G|----------|--------------|------------|------0-|


link: http://www.youtube.com/watch?v=MEE4TrT9RXg&feature=related

Arroz con leche:

e|-----0--------|--------0----|-0-1-0-----------|
B|---1--1-1---|---1-1---3--|--------3-1-0-0-|
G|-0-----------|-0-----------|-------------------|

e|--------------|-------0—–|-----0-----|
B|-------0-1--|----1-----1–|---1---3–|
G|-0–2-------|–0-----------|-0--------|

e|-0-1-0--------------|-----------------|
B|--------3-1-0-0----|------0-1------|
G|---------------------|-0-2------------|


link: http://www.youtube.com/watch?v=2AUE4CBDeOY

La Cucaracha:

e|———-1-5——–1-5–1-1-0-0———-|
B|–1-1-1——1-1-1——————3-3-1—|

e|———–0-3————0-3–8-10-8-6-5-3-1|
B|–1-1-1———1-1-1—————————–|

e|——–1-1-5-5-8-5–8-10-8-6-5-8-6-3—–|
B|–1-1———————————————|

e|——–0-0-3-3-6-3–8-10-8-6-5-3-1——|
B|–1-1——————————————–|


link: http://www.youtube.com/watch?v=4-TTyhBqdJ0

Estrellita donde vas:

MI - E-------------0-0--------------------------------
SI - B--------3-3-------3--------1-1--0-0-------------
SOL-G-0-0------------------------------------2-2--0----
RE - D----------------------------------------------
LA - A----------------------------------------------
MI - E----------------------------------------------

----------------------------------------------
--3-3--1-1--0-0-------3-3--1-1--0-0-----------
---------------------2----------------------2--------
----------------------------------------------
----------------------------------------------
----------------------------------------------

-----------0-0--------------------------------
------3-3-------3--------1-1--0-0-------------
-0-0--------------------------------2-2--0----
----------------------------------------------
----------------------------------------------
----------------------------------------------


link: http://www.youtube.com/watch?v=b4jJuH42i30&feature=related

Come as you are - Nirvana(intro):

MI -E---------------------------------------.
SI -B---------------------------------------.
SOL-G------------------------------------.
RE -D-------------------------------------.
LA -A------------0---0----------2------2-.
Mi -E--0-0-1-2---2---2-2-1-0---0-0---.

SE REPITE SACANDO LOS DOS 00


link: http://www.youtube.com/watch?v=yADOdeZTD9c

Judas Priest - Breaking The Law :

E---------------------------|----------------------------|
B---------------------------|----------------------------|
G---------------------------|----------------------------|
D---------------------------|----------------------------|
A-0-2-3-0-2-3-0-2--3--|--------0-------0----3--2-|
E---------------------------|--1-3-----1-3-----3------|


link: http://www.youtube.com/watch?v=L397TWLwrUU&ob=av2e

No Me Arrepiento De Este Amor-Intro:

|-----------------------------|-------------------------------|------------------------------------|--------------------------------------|
|-----------------------------|-------------------------------|------------------------------------|--------------------------------------|
|-----------------------------|-------------------------------|------------------------------------|--------------------------------------|
|-----------------------------|-------------------------------|------------------------------------|--------------------------------------|
|-----------------------------|---------3--5--5---------5--|--5--5--6--5--3--3-------------|---------3--5--3----------------------|
|-3--5--6--6--5--5--3----|--3--6------------6--6------|------------------------6--6--5--|--5--5-------------6--6--5--5--3----| Se repite


link: http://www.youtube.com/watch?v=aOsPNnospDw

prrrrety Woman!!! Temaso con esto quedan re bien en su familia:

e---------------------------------------------------------------.
b---------------------------------------------------------------.
g---------------------------------------------------------------.
d------------0------------------0-------------------0--4-2-0-.
a---------2------------------2--------------------2------------.
e-0-0-4-------------0-0-4---------------0-0-4--------------.

e-------------------------------------------.
b-------------------------------------------.
g-------------------------------------------.
d------------0-4-2-0-----------0-4-2-0-.
a----------2-------------------2-----------.
e-0-0-4---------------0-0-4--------------.


link: http://www.youtube.com/watch?v=UeKsV6tohiE

BEAT IT– MICHAEL JACKSON:

1|---------------------------------------------------||
2|---------------------------------------------------||
3|-----------0----------------------0---------------||
4|--------------2-4-2-0-0----------2-4-2-0------||(todo por cuantas veces quieran )
5|---------2----------------------2-----------------||


link: http://www.youtube.com/watch?v=2_sNpaboK_g

flaca-andres calamaro(intro):

1---------------------------------------------------------------------------------------------.
2---3-0------0-3-4---0-----0-4-5--0--------0-3-1-1-0-3--0--------0-3--0-----------.
3--------2-0-------------2-0-----------2-0-2--------------------2-0-2---------2-0------.


link: http://www.youtube.com/watch?v=UCF9oHXhDMU&ob=av2e

LOS EXPEDIENTES SECRETOS X:

1º:----------------.
2º:----------------.
3º:----------------.
4º:---2-0-2-5-2-.
5º:-0-------------.
6º:----------------.


1º:---------------.
2º:---------------.
3º:----------------.
4º:--2-0-2-7-2-.
5º:-0-------------.
6º:---------------.

1º:-----------------------------.
2º:-----------------------------.
3º:-5-4-2-0-2---5-4-2-0----.
4º:--------------2-----------2-.
5º:-----------------------------.
6º:-----------------------------.


link: http://www.youtube.com/watch?v=DywiQigQvCQ

THE MAN WHO SOLD THE WORLD–NIRVANA(INTRO):

1|———————————————||
2|———————————————||
3|–2–2–2–0—-2-3-2–0–(x4)—2——||
4|———————————————||
5|———————————————||
6|———————————————||


link: http://www.youtube.com/watch?v=fregObNcHC8&ob=av2e

Sweet Dreams-Marilyn Manson(INTRO):

E|------------------------------------------|
B|------------------------------------------|
G|------------------------------------------|
D|------5---6----5-------------------------|
A|-3-3---3----3---3-------6/8------5/6-|
E|---------------------4-4-------3-3------|


link: http://www.youtube.com/watch?v=_tm-1yRZtQg

Black sabbath-Iron man(intro):

6)-0-3-3-5-5-7-8-7-8-7-8-7-8-3-3-5-5-


link: http://www.youtube.com/watch?v=MII3ns2KTBc

Enter Sandman(Metallica)(intro):

-----------------------.
-----------------------.
-----------------------.
-------5--------------.
----7----------7-----.
-0--------6-5-------.

TOQUENLO TODAS LAS VECES QUE QUIERAN


link: http://www.youtube.com/watch?v=1QP-SIW6iKY

Eye Of The Tiger(Rocky Balboa)Quinta cuerda:

-7-7-5-7- 7-5-7-7-5-3-.


link: http://www.youtube.com/watch?v=VgSMxY6asoE

Paint it black(Rolling Stones)Quinta cuerda:

-1-3-4-6-4-3-1-0-0-1-3--0-1-3-3-1-0-1-.


link: http://www.youtube.com/watch?v=Q9DDpmyPZZA

iNSPECTOR GADGET(INTRO DE PROGRAMA):

1|--------------------------------------------.
2|---------------------------------------3-2-.
3|-----------------------------------4-3-----.
4|-----0-2-4-0-3--2-0-----0-2-4---------.
5|-2-4------------4-----2-4----------------.
6|--------------------------------------------.


link: http://www.youtube.com/watch?v=qmNa7d_8V5k

Tetris-Vídeo Juego :

e -0-------------------0-------------------------|
B ---0-1-3-1-0----1---3-1-0-0-1-3-1------|
G --------------2-2-----------------------2-2-|
D -----------------------------------------------|
A -----------------------------------------------|
E -----------------------------------------------|

e ---1-5-3-1-0--0----------------------------|
B -3------------1---3-1-0-0-1-3-1----------|
G -------------------------------------2-2-----|
D -----------------------------------------------|
A -----------------------------------------------|
E -----------------------------------------------|


link: http://www.youtube.com/watch?v=05tQb5tOriM&feature=related

Noche de Paz:

|-0-2-0----0-2-0---7-7-4-4-5-5-0-|
|---------2---------2-------------------|
|----------------------------------------|
|----------------------------------------|
|----------------------------------------|
|----------------------------------------|


|-2-2-2-5-4-2-0-2-0---2-2-2-5-4-2-0-2-0---|
|------------------------2------------------------2-|
|----------------------------------------------------|
|----------------------------------------------------|
|----------------------------------------------------|
|----------------------------------------------------|

|-7-7-7-10-7-4-5s9------------5---0-------0------------------------|
|--------------------------------------2---3------0----------------------|
|----------------------------------------------------2--------------------|
|--------------------------------------------------------------------------|
|--------------------------------------------------------------------------|
|--------------------------------------------------------------------------|


link: http://www.youtube.com/watch?v=ZTELDtra5Ws

los simpsons-intro:

1°---0-2-5-3-0---------------------------------.
2°-1-------------1------------------0-2-2-2-3-.
3°------------------2------0------0-------------.
4°---------------------444--444---------------.


link: http://www.youtube.com/watch?v=DX1iplQQJTo

harry poter-intro:

1°--0-3-2-0-7-5---0-3-2---1-----0-3-2-7-10-9-8-5-8-7-6---3-0-.
2°-0---------------0--------3---3-0------------------------------0------.


link: http://www.youtube.com/watch?v=UPkbfCJM2C4

una llamada perdida(cancion):

1°---0-3--3-5-3----.
2°-1-----0--------1-.


link: http://www.youtube.com/watch?v=-LEavBLoUJY

el exorcista (cancion):

1°-0-5-0-7-0-3-5-0-8-0-10-0-7-8-5-0-7-0-3-5-0-8-0-10-0-7-8-7-.


link: http://www.youtube.com/watch?v=_Kr3lQ3hXTk

michael myers halloween(intro):

1°-9--------9-------9----10----.
2°----7--7----7--7----7------7-.


link: http://www.youtube.com/watch?v=gMLPnk9-6MM

Fuentes de Información - tablaturas para guitarra-actualizado

El contenido del post es de mi autoría, y/o, es un recopilación de distintas fuentes.

Dar puntos
1 Puntos
Votos: 1 - T!score: 1/10
  • 0 Seguidores
  • 1.077 Visitas
  • 2 Favoritos

4 comentarios - tablaturas para guitarra-actualizado

@robin555 Hace más de 2 años
Interesante, hay varias que quisiera aprenderme
@MAURO556 Hace más de 2 años
muy buanas y faciles,no tenes esa cancion que se llama gloomy sunday esta muy buena,la quise sacar con mi guitarra pero no pude si la tenes por favor subila.