Hola Amigos, bueno hace mucho que no hago un post pero volví con una de las canciones más conocidas de los Kiss I was made for loving you. en español yo fui hecho para amarte. Pero esto es solamente el solo "más conocido" que aparece en la canción. Bueno sin dar más vueltas aquí esta:

e|------------------------------------------------------------------------| Primera Cuerda
B|-------------10-12-12-10--------------------------------------------| Segunda Cuerda
G|-9-11-12-------------------12-11-----------------------------------| Tercera Cuerda
D|--------------------------------------------------------------------------| Cuarta Cuerda
A|--------------------------------------------------------------------------| Quinta Cuerda
E|--------------------------------------------------------------------------| Sexta Cuerda

e|-------------------------------------------------------------| Primera Cuerda
B|-------------10-12-12-10-------------------------------| Segunda Cuerda
G|-9-11-12-------------------------------------------------| Tercera Cuerda
D|-------------------------------------------------------------| Cuarta Cuerda
A|-------------------------------------------------------------| Quinta Cuerda
E|-------------------------------------------------------------| Sexta cuerda

O sino de esta forma:

e|----------5-7-7-5-------------------------------| Primera Cuerda
B|-5-7-8------------8-7--------------------------| Segunda Cuerda
G|--------------------------------------------------| Tercera Cuerda
D|---------------------------------------------------| Cuarta Cuerda
A|---------------------------------------------------| Quinta Cuerda
E|---------------------------------------------------| Sexta Cuerda

e|----------5-7-7-5-------------------------------| Primera Cuerda
B|-5-7-8-------------------------------------------| Segunda Cuerda
G|---------------------------------------------------| Tercera Cuerda
D|---------------------------------------------------| Cuarta Cuerda
A|---------------------------------------------------| Quinta Cuerda
E|---------------------------------------------------| Sexta Cuerda

Bueno acá esta a su decisión de que manera hacerlo. Nos vemos comenten y dejen puntos por favor.