Bueno amiwos
soi nuevo en esto y queria demostrar mi talento asiendo post
Bueno el post trata de canciones faciles para tocar en guitarra

bueno para el q no sepa lo q es una tablatura......

Las tablaturas para guitarra son como una partitura que muestra la posición de los dedos en la guitarra, pero que no da datos de tonos ni duración de las notas. Asi que para tocar una canción a traves de una tablatura, la debes haber escuchado antes para conocer el ritmo y sonido de la guitarra.

Tambien te puede interesar:
Como afinar una guitarra
Tocar escalas de guitarra


En primer lugar, nos interesa saber el nombre de las partes que componen el mastil de la guitarra:

TRASTES: En el mástil se encuentran los trastes, que son las divisiones en que se divide.

CUERDAS: La guitarra tiene 6 cuerdas de distinto grosor, la más fina que esta abajo, es la denominada 1ª cuerda, la siguiente es la 2ª, y así hasta la 6ª que es la más gruesa.

Mastil de la guitarra
......---\
Mi 1ra. ||---------|----------|----------|----------|---------|-
Si 2da. ||---------|----------|----------|----------|---------|-
Sol 3ra.||---------|----------|----------|----------|---------|-
Re 4ta. ||---------|----------|----------|----------|---------|-
La 5ta. ||---------|----------|----------|----------|---------|-
Mi 6ta. ||---------|----------|----------|----------|---------|-
......___/1 Traste . 2 Traste . 3 Traste . 4 Traste . 5 Traste





La tablatura se compone de seis líneas horizontales que representan las seis cuerdas de la guitarra, la línea de arriba es la 1ª cuerda y la última línea es la 6ª:

e------------------------------primera cuerda
B-----------------------------segunda cuerda
G-----------------------------tercera cuerda
D-----------------------------cuarta cuerda
A-----------------------------quinta cuerda
E-----------------------------sexta cuerda



En estas líneas estaran unos números que muestran el traste que se tiene que pulsar:

e----1-------------------------
B------------------------------
G-------3----------------------
D----------5-------------------
A------------------------------
E------------------------------

Esto quiere decir que debes comenzar el punteo de guitarra pulsando la cuerda primera(e) en el traste 1, después sigue la cuerda tercera(G) en el traste 3, después sigues la cuerda cuarta(D) en el traste 5.
Si encuentras un 0 en la tablatura te esta indicando que la cuerda hay que tocarla sin pulsarla.



Cuando en la tablatura hay unos números sobre otros, los tienes que tocar al mismo tiempo y cada uno en su traste. Esto se llamaria acorde y se define como: dos o más notas sonando al mismo tiempo.

e--2---------------------------primera cuerda
B--3---------------------------segunda cuerda
G------------------------------tercera cuerda
D------------------------------cuarta cuerda
A------------------------------quinta cuerda
E------------------------------sexta cuerda

En la tablatura de arriba hay dos notas una encima de otra, sin dejar espacio. Esto indica que hay que tocarlas a la vez. La primera cuerda de la guitarra pisada en el traste 2 y la segunda cuerda pisada en el traste 3, presionas las dos cuerdas a la vez en sus trastes correspondientes y las tocas al mismo tiempo.



Bueno las canciones !!



INSPECTOR GADGET suena bien
1|------------------------------------------
2|---------------------------------------3-2
3|----------------------------------4-3-----
4|------0-2-4--0-3---2-0------0-2-4---------
5|--2-4------------4-----2-4----------------
6|------------------------------------------




HUMO SOBRE EL AGUA de Deep Purple muy facillll

La Pueden hacer con cualquier cuerda

|-0-3-5---0-3-6-5---0-3-5-3-0--------

yo akonsejo tocar 2 cuerdas a la ves suena mas power...




El Himno a la Alegria! esta bien bueno



||-0--0--1--3-|-3--1--0----|----------0-|-0----------||
||------------|----------3-|-1--1--3----|------3-----||
||------------|------------|------------|------------||
||------------|------------|------------|------------||
||------------|------------|------------|------------||
||------------|------------|------------|------------||


||-0--0--1--3-|-3--1--0----|----------0-|------------||
||------------|----------3-|-1--1--3----|-3----1-----||
||------------|------------|------------|------------||
||------------|------------|------------|------------||
||------------|------------|------------|------------||
||------------|------------|------------|------------||


||-----0—-----|-0-1--0-----|-0-1—0------|------------||
||-3-----1--3-|--------1--3|---------3--|1—3---------||
||------------|------------|------------|---------0--||
||------------|------------|------------|------------||
||------------|------------|------------|------------||
||------------|------------|------------|------------||


||-0—-0—-1—-3-|-3--1--0----|----------0-|------------||
||------------|----------3-|-1--1--3----|-3---1------||
||------------|------------|------------|------------||
||------------|------------|------------|------------||
||------------|------------|------------|------------||
||------------|------------|------------|------------||







FLACA de Andres Calamaro (intro)
e------------------------------------------------------------------
B--3-----------4------------5-----------3-1---3-----------4--------
G---4-2-0-2-4----4-2-0-2-4----4-2-0-2-4-----4---4-2-0-2-4---4-2-0--
D------------------------------------------------------------------
A------------------------------------------------------------------
E------------------------------------------------------------------






El Feliz Cumpleaños .......


e----------1-0---------3-1-----8-5-1-1--0---6-6-5-1-3--1-
B-1-1-3--1-----1-1-3-1-----1-1------------3--------------






la cucaracha!!!


e--------1-5--------1-5--1-1-0-0-----------------------
B--1-1-1------1-1-1--------------3-3-1-----------------
G------------------------------------------------------
D------------------------------------------------------
A------------------------------------------------------
E------------------------------------------------------


e--------0-3--------0-3--8-10-8-6-5-3-1----------------
B--1-1-1------1-1-1------------------------------------
G------------------------------------------------------
D------------------------------------------------------
A------------------------------------------------------
E------------------------------------------------------


e------1-1-5-5-8-5--8-10-8-6-5-8-6-3-------------------
B--1-1-------------------------------------------------
G------------------------------------------------------
D------------------------------------------------------
A------------------------------------------------------
E------------------------------------------------------


e------0-0-3-3-6-3--8-10-8-6-5-3-1---------------------
B--1-1-------------------------------------------------
G------------------------------------------------------
D------------------------------------------------------
A------------------------------------------------------
E------------------------------------------------------



REDEMPTION SONG

by Bob Marley

----------------|----------------|--------------------|------------|
----------------|----------------|--------------------|------------|
----------------|----------------|--------------------|------------|
----------------|------2---O-----|--------------O-----|------------|
------O---2-----|--3-----------2-|------O---2-------2-|--3---O-----|
--3-----------3-|----------------|--3-----------------|----------3-|

----------------|----------------|----------------|------------|
----------------|----------------|----------------|------------|
----------------|----------------|----------------|------------|
----------------|------2---O-----|--------------O-|------------|
------O---2-----|--3-----------2-|------O---2-----|--3---O-----|
--3-----------3-|----------------|--3-------------|----------3-|



he aki unas paginas donde pueden hay muxas tablaturas

http://www.ultimate-guitar.com/

http://www.guitaretab.com



Bueno amigos...
eso es todo por hoi las canciones
estan bien buenas y suenan muy bien
bueno luego pondre mas

espero q valoren el esfuerzo...

espero unos puntitos


By MatizGraf

Fuerza Chile!!!!