estos acordes son , algunos, sacados de tusacordes.com, por favor comenten y pregunten por los rasguidos, pues es algo que siempre me dicen pero es algo que me gustaria decirlo uno por uno, para mi comodidad y la de ustedes, gracias.




rimer





/-------------------------------------------------------------
B/----------------------------0-1-0-1-3--3/5---3--5-3-1-0------
G/--2---2-4-5-4---2-0-2-----2------------------------------2---
D/----------------------2------------------------------------2-
A/-------------------------------------------------------------
E/-------------------------------------------------------------

/-------
/-------
/-------
/--0--5-
/-------
/-------


Soy de la ciudad con todo lo que ves:
con su ruido, con su gente, consume vejez;
y no puedo evitar el humo que entra hoy,
pero igual sigo creciendo, soy otro carbón,
No voy a imaginar la pena en los demás;
compro aire y, si es puro, pago mucho más;
no voy a tolerar que ya no tengan fe,
que se bajen los brazos, que no haya lucidez.

(cuando empieza “...Me voy...” el saxo hace un
pekeño acompañamiento q dura todo el estribillo):

/-----------------------------------------------------------
/--5---5/6------3-5----5/6--3----5---5/6------3-5----5/6--3-
/----5-----5--5------5--------5----5-----5--5------5--------
/-----------------------------------------------------------

Me voy, volando por ahí,
y estoy convencido de ir;
me voy, silbando y sin rencor,
y estoy zafando del olor.

(entra la 2da gtarra haciendo acordes tipo ska q son las mismas
notas q en toda la cancion, se tokan de abajo hacia arriba y
se hacen sonar unikamente las 3 primeras cuerdas)

Am Dm G el sol tmb se puede tocar asi
e/--5-----5-----3--- --7--
B/--5-----6-----3--- --8--
G/--5-----7-----4--- --7--
D/--7-----7-----5---
A/--7-----5-----5---
E/--5-----5-----3---

Me encontré con la gente que sabe valorar,
que, de turista en la Capital, ha sabido vagar,
y no ha encarado, al fin, la cruda realidad
de respirar hollín, de llorar alquitrán.
Y empiezo a envejecer, sudando mi verdad,
criado pa' toser, con mucha variedad;
y adónde ir a parar, cargando con mi olor;
deberíamos andar desnudos pa' sentirnos mejor.

Me voy, volando por ahí,
y estoy convencido de ir;
me voy, silbando y sin rencor,
y estoy zafando del olor.








este es el solo de vientos pa gtarra:


e/--12--10-8-7-8-7------------7-8--8-10-8--7-13-12-10-10h12-12-
B/------------------8-5--5/6-----------------------------------
G/-------------------------------------------------------------
D/-------------------------------------------------------------

/--10-12-15---13-12-10-13-12-----------17-15-10-12-12--
/-----------------------------13-12-13-----------------
/------------------------------------------------------
/------------------------------------------------------

/--10-8-7---8--8-7-5---8-7--------------1p0---1-3-
/--------10----------8-----8-5---3----------3-----
/----------------------------------0-2------------
/-------------------------------------------------

/---------5-8-7-------7--8-10/12-10--7-8-10--12-15-13-12-
/--5-6-8---------8-10-------------------------------------
/---------------------------------------------------------
/---------------------------------------------------------

e/--17---15---17-
B/---------------


Soy de la ciudad con todo lo que ves:
con su ruido, con su gente, consume vejez;
y no puedo evitar el humo que entra hoy,
pero igual sigo creciendo, soy otro carbón,

No voy a imaginar la pena en los demás;
compro aire y, si es puro, pago mucho más;
no voy a tolerar que ya no tengan fe,
que se bajen los brazos, que no haya lucidez.


Me voy, volando por ahí,
y estoy convencido de ir;
me voy, silbando y sin rencor,
y estoy zafando del olor.

E :-------------------------------------------------------|
B :-------------------------------------------------------|
G :4----5~----4---5--7~-----7--5--/9-----5/-7---4~-----5--|
D :-------------------------------------------------------|
A :-------------------------------------------------------|
E :-------------------------------------------------------|

E :----------|-------------------------------------------|
B :----------|-------------------------------------------|
G :-4---2----|-------2---4---5~-----5----4-/--12~----5---|
D :----------|-------------------------------------------|
A :----------|-------------------------------------------|
E :----------|-------------------------------------------|

E :----------------------------------|
B :----------------------------------|
G :7--4~----5---4----2---------------|
D :----------------------------------|
A :----------------------------------|
E :----------------------------------|








Intro

*A B A

Eb G


C Cmaj7
Something in the way she moves
C7 F *F E
Attracts me like no other lover
D D7 G
Something in the way she woos me
Am AminMaj 7
I don't want to leave her now
Am7 D9
You know I believe, and how

Somewhere in her smile she knows
That I don't need no other lover
Something in her style that shows me
I don't want to leave her now
You know I believe, and how


A Amaj7 F#m E
You're asking me will my love grow
D G A G# F# E C# B A
I don't know, I don't know
A Amaj7 F#m E
You stick around, now it may show
D G A G# F# E C# B A
I don't know, I don't know

Solo

Something in the way she knows
And all I have to do is think of her
Something in the things she shows me
I don't want to leave her now
You know I believe, and how


Intro

(^) Slide Up () Slide Down (h) Hammer On (p) Pull Off (b) Bend

E|-----------------------------------------------------------
B|---10--13b-10---11-12-13-----------------------------------
G|-----------------------------------------------------------
D|-----------------------------------------------------------
A|-----------------------------------------------------------
E|-----------------------------------------------------------

Solo

E|-----------------------------------------------------------
B|--------8--------------8^10--10--8--------------------------
G|---7h9------9-----7h9--------------9-----------------------
D|-----------------------------------------------------------
A|-----------------------------------------------------------
E|-----------------------------------------------------------

E|-----------------------8--8--10p8--12p10-------------------
B|--------8h10p8--10^11---------------------13--10-----------
G|---7h9-----------------------------------------------------
D|-----------------------------------------------------------
A|-----------------------------------------------------------
E|-----------------------------------------------------------

E|---------8--8----------------------------------------------
B|---8^10--------------8--85--------------------------------
G|----------------7^9----------2-----------------------------
D|-----------------------------------------------------------
A|-----------------------------------------------------------
E|-----------------------------------------------------------

E|--------------------7p5---7p5--7p5-----------------12-11-10
B|--------------7--7------------------8-----13-12p11---------
G|--42---5^7----------------------------12------------------
D|-----------------------------------------------------------
A|-----------------------------------------------------------
E|-----------------------------------------------------------

E|------------------------12--10--8--10--8-------------------
B|--------------------8---------------------10---------------
G|---7b5---7b5---7b5-----------------------------------------
D|-----------------------------------------------------------
A|-----------------------------------------------------------
E|-----------------------------------------------------------

E|-----------------------------------------------------------
B|---10--12b-10---11-12-13-----------------------------------
G|-----------------------------------------------------------
D|-----------------------------------------------------------
A|-----------------------------------------------------------
E|-----------------------------------------------------------

<<




Yesterday


1ª Parte:
e|--------------0-1-0------------------------------------------|
B|--------0-2-3-------3-3---3-3-1------------------------------|
G|-0-----2------------------------3-2-0---3-2-2-0---2-0-----2-2|
D|---3-3------------------------------------------3-----0-3----|
A|-------------------------------------------------------------|
E|-------------------------------------------------------------|

2ª Parte:
e|-------0-1-0------0----0-1|
B|-----3-------3------3-1---|
G|-2-2----------------------|
D|--------------------------|
A|--------------------------|
E|--------------------------|


Hello goodbye

hello, hello, hello...
E|------------------------------------------------------------------------
B|------------------------------------------------------------------------
G|-----------2-4-5----------2-------------2-4-5-----------2---------------
D|-----2-3-5----------2-3-5---------2-3-5-----------2-3-5----5-2----------
A|-3-5--------------------------3-5------------------------------5-3------
E|------------------------------------------------------------------------

go,go,go... Solo:
E|--------------------8--|--------------------------------------------------------------------8-
B|-----------------------|-6---6---6-------5-6-5-------5-6-8-6-5--------------------------------
G|-----------------------|---7---7-----5-7-------7-5-7-----------7-5-4--------------------------
D|-7-5-------------------|-----------7---------------------------------7-5-7-5------------------
A|-----8-7-5-------------|-----------------------------------------------------8-7-5------------
E|-----------8-7-5-3-----|-----------------------------------------------------------8



All you need is love


E-----------------------------------10```--------------
B------------------------10---10----------12-----------
G-------------12---12--------------------------12------
D--12---12---------------------------------------------
A------------------------------------------------------
E------------------------------------------------------


E------------------------------------------------------
B-------12---------------13```------------10--------10-
G--12------12----------------------------------12------
D------------------14----------------------------------
A------------------------------------------------------
E------------------------------------------------------


G D/F# Em
Love love love

G D/F# Em
Love love love

D7/A G D7/A
Love love love

(Then play this)

E------------------------------------------------------
B------------------------------------------------------
G---------------------------------0--------------------
D--0-------------------0----0--2-----------------------
A-------3-----2---3------------------------------------
E------------------------------------------------------



G D/F# Em
There's nothing you can do that can't be done

G D/F# Em
Theres nothing you can sing that can't be sung

D7/A G D/F# D7
Nothing you can say but you can learn to play the game

D7/A D7
It's easy


There's nothing you can make that can't be made
No one you can save that can't be saved
Nothing you can do but you can learn how to be you in time
It's easy


CHORUS:

G A7sus D7
All you need is love

G A7sus D7
All you need is love

G B7 Em G/D
All you need is love love

C D7 G
Love is all you need


There's nothing you can know that isn't known
Nothing you can see that isn't shown
Nowhere you can be that isn't where you're meant to be
Its easy

CHORUS

C D7 G
Love is all you need

G A7sus D7
All you need is love

D7 G A7sus D7
All together now All you need is love

D7 G A7sus D7
Everybody now All you need is love

G D G
Love is all you need (repeats a few times)

(Then Paul (I think) starts going "Oh yeah - loves you yeah yeah
yeah - she loves you yeah yeah yeah".

Chords used:

A7sus x02020
B7 x21202
C x32010
D xx0232
D/F# xx4232
D7 xx0212
D7/A x00212
Em 022000
G 320033
G/D xx0033



Help!


Bm Bm/A
Help, I need somebody
G G/F#
Help, Not just anybody
E
Help, You know, I need someone
A + Riff
Help!

A C#m
When I was younger so much younger than today
F#m D G A
I never needed anybody’s help in any way
A C#m
But know these days are gone, I’m not so self-assured
F#m D G A
Now I find I’ve changed my mind and opened up the doors

Bm Bm/A + Riff 2
Help me if you can, I’m feeling down
G G/F# + Riff 3
And I do appreciate your bein’ ‘round
E
Help me get my feet back on the ground
A + Riff
Won’t you please, please help me?

And now my life has changed in oh, so many ways
My independence seems to vanish in the haze
But every now and then I feel so insecure
I know that I just need you like I never done before

Help me if you can, I’m feeling down
And I do appreciate your bein’ ‘round
Help me get my feet back on the ground
Won’t you please, please help me?

When I was younger so much younger than today
I never needed anybody’s help in any way
But know these days are gone, I’m not so self-assured
Now I find I’ve changed my mind and opened up the doors

Help me if you can, I’m feeling down
And I do appreciate your bein’ ‘round
Help me get my feet back on the ground
Won’t you please, please help me?
F#m A A6
Help me, help me, ooh

Riff:

e|------------------------------------|
B|-------0--------0-------0-------0---|
G|-----0--------0-------0-------0-----|
D|---5--------4-------3-------2-------|
A|-7--------6-------5-------4---------|
E|------------------------------------|

Riff 2 Riff 3
D|--9--7--5------|---5---4---2------| <-- Baixo
A|---------------|------------------|
E|--7--5--3------|---3---2---0------| <-- Guitarra





Lucy in the sky with diamonds




Picture yourself in a boat on a river
With tangerine trees and marmalade skies
Somebody calls you, you answer quite slowly
The girl with kaleidoscope eyes

Bb C
Celophane flowers of yellow and green
F6 Bb
Towering over your head
C9 G
Look for the girl with the sun in her eyes
C Em D
And she's gone

G C D
Lucy in the sky with diamonds
Lucy in the sky with diamonds
Lucy in the sky with diamonds
D A
Aaaahhhhhh.....

Follow her down to a bridge by a fountain
Where rocking horse people eat marshmallow pies
Everyone smiles as you drift past the flowers
That grow so incredibly high

Newspaper taxis appear on the shore
Waiting to take you away
Climb in the back with your head in the clouds
And you're gone....

Lucy in the sky with diamonds
Lucy in the sky with diamonds
Lucy in the sky with diamonds
Aaaahhhhhh.....

Picture yourself on a train in a station
With plasticine porters with looking glass ties
Suddenly someone is there by the turnstile
The girl with kaleidoscope eyes

Lucy in the sky with diamonds
Lucy in the sky with diamonds
Lucy in the sky with diamonds

Intro*

(^) Slide Up () Slide Down (h) Hammer On (p) Pull Off (b) Bend

It Goes through twice for the intro, then the lyric would start.
E ---------0--------0------------0---------------|
B -------------------------------------32-------|
G -----2-------0-------2------2-------------2----| 2x
D -2---------------------4----------3------------|
A -----------------------------------------------|
E -----------------------------------------------|
(tab is same as intro)

Picture yourself in a boat on a river With

E ---------0------0--------------0-------------------|
B ----------------------------------1-----1----------|
G ------2------0-----2-------2---------2-----2----4--|
D ---2-------------------4---------------------------|
A ---------------------------------------------------|
E ---------------------------------------------------|

tangerine trees and marmelaide skies

(tab is same as intro)
Somebody calls you you answer quite slowly

E ------------0------0------------------------------|
B --------------------------------------------------|
G -------2-------0------2---------------------------|
D --2------------------------4---4---4--0--3--0--3--|
A -------------------------4---4---4----------------|
E --------------------------------------------------|

The girl with kaleidoscope eyes


Historia de remis



|-----------1--0---------------------1-1/3-----------------|
|--------3-------1--------3-------3--------1-------3-------|
|-----2------------2----2-------2------------2---2---------|
|--0------------------0-------0-----------------0----------|
|----------------------------------------------------------|
|----------------------------------------------------------|

Esa parte se toca dos veces. De ahi sigue esto:

|--1-0-----------1-0------- -1-0-------------1-0-------------|
|-------1-0-1--------1-0-1-------1-0-1/3--------1-0-1/3-----|
|-----------------------------------------------------------|
|-----------------------------------------------------------|
|-----------------------------------------------------------|
|-----------------------------------------------------------|

|--1-0-----------1-0-------1-0-------------|
|-------1-0-1--------1-0-1------1-0-1/3----|
|------------------------------------------|
|------------------------------------------|
|------------------------------------------|
|------------------------------------------|




En el muelle de san blas

intro & versos
e-----------------7-------------------------5-------------------------5--------
B------------8----------8-------------5---------5---------------5----------5---
G---------9-----9----9----9--------7-----7----7----7---------6-----6-----6----6
D--------------------------------------------------------0---------------------
A------------------------------0-----------------------------------------------
E------0-----------------------------------------------------------------------

e------------------3-----2-----0----
B-------------3---------------------
G-----------4---4-----4-------------
D-----------------------------------
A-----------------------------------
E-------3---------------------------





Lo dejaria todo - chayanne




Intro.

1.------------------------|
2.-----------------5-7-8~-|
3.--5/7-5-----------------|
4.--------7-5-------------|
5.------------7-5~--------|
6.------------------------|

1-5-5-4-4-2-2-0-----------|
2-7-7-5-5-4-4-2-----------|
3-------------------------|
4-------------------------|
5-------------------------|
6-------------------------|

1---------5-5-4-4-2-2-0---|
2-5-7-8~--7-7-5-5-4-4-2---|
3-------------------------|
4-------------------------|
5-------------------------|
6-------------------------|

1---------5-5-4-4-2-2-0---|
2-5-7-8~--7-7-5-5-4-4-2---|
3-------------------------|
4-------------------------|
5-------------------------|
6-------------------------|

1---------5-5-4-4-2-2-0---|
2-5-7-8~--7-7-5-5-4-4-2---|
3-------------------------|
4-------------------------|
5-------------------------|
6-------------------------|

Am D
He intentado casi todo para convencerte,
G C
Mientras el mundo se derrumba todo acá en mis pies.

Am D
Mientras aprendo de esta soledad que desconozco,
G C
Me vuelvo a preguntar quizás qué si sobre viviré.

Am D
Por que sin ti me queda la conciencia, helada y vacía.
G C
Por que sin ti me he dado cuenta amor, que no renaceré,

Am D
Por que yo he ido más allá del límite de la desolación.
C G Am
Mi cuerpo, mi mente y mi alma ya no tienen conexión,
D
Y yo te juro que...


(CORO)
G
Lo dejaría todo por que te quedaras,
C
Mi credo mí pasado mi religión.
D
Después de todo estás rompiendo nuestros lazos,
G
Y dejas en pedazos este corazón.
C
Mi piel también la dejaría,
G D Em
Mi nombre, mi fuerza hasta mi propia vida-a.
Am D
Y qué más da perde-er, si te llevas el todo,
C G
Mi fe, ¿Qué no dejaría?

1.------------------------|
2.-----------------5-7-8~-|
3.--5/7-5-----------------|
4.--------7-5-------------|
5.------------7-5~--------|
6.------------------------|

1-5-5-4-4-2-2-0-----------|
2-7-7-5-5-4-4-2-----------|
3-------------------------|
4-------------------------|
5-------------------------|
6-------------------------|

1---------5-5-4-4-2-2-0---|
2-5-7-8~--7-7-5-5-4-4-2---|
3-------------------------|
4-------------------------|
5-------------------------|
6-------------------------|

1---------5-5-4-4-2-2-0---|
2-5-7-8~--7-7-5-5-4-4-2---|
3-------------------------|
4-------------------------|
5-------------------------|
6-------------------------|

1---------5-5-4-4-2-2-0---|
2-5-7-8~--7-7-5-5-4-4-2---|
3-------------------------|
4-------------------------|
5-------------------------|
6-------------------------|

Am D
Duelen más tus cosas buenas cuando estás ausente,
G C
Yo se que es demasiado tarde para remediar.


Am D
No me queda bien valerme de diez mil excusas,
G C
Cuando definitivamente se que ahora te vas.

Am D
Aunque te vuelva a repetir que estoy muriendo día a día,
G C
Aunque también estés muriendo tú, no me perdonaras.

Am D
Aunque sin ti haya llegado al limite de la desolación,

C G Am
Mi cuerpo, mi mente y mi alma ya no tienen conexión,

D
Sigo muriéndome.

G
Lo dejaría todo por que te quedaras,
C
Mi credo mí pasado mi religión.
D
Después de todo estás rompiendo nuestros lazos,
G
Y dejas en pedazos este corazón.
C
Mi piel también la dejaría,
G D Em
Mi nombre, mi fuerza hasta mi propia vida-a.
Am D
Y qué más da perde-er, si te llevas el todo,

Mi fe.

G
Lo dejaría todo por que te quedaras,
C
Mi credo mí pasado mi religión.
D
Después de todo estás rompiendo nuestros lazos,
G
Y dejas en pedazos este corazón.
C
Mi piel también la dejaría,
G D Em
Mi nombre, mi fuerza hasta mi propia vida-a.
Am D
Y qué más da perde-er, si te llevas el todo,

Mi fe.

G
Lo dejaría todo por que te quedaras,
C
Mi credo mí pasado mi religión.
D
Después de todo estás rompiendo nuestros lazos,
G
Y dejas en pedazos este corazón.
C
Mi piel también la dejaría,
G D Em
Mi nombre, mi fuerza hasta mi propia vida-a.
Am D
Y qué más da perde-er, si te llevas el todo,

mi fe.








G
Cuando Gandhi sale de Coto
C
los compañeros voltean a mirarlo
D
todos se tienen que ir
G
y nadie quiere acompañarlo

Camisa blanca muy lungo tez morena
los ojos rojos siempre en su mirada
va por la plaza y manguea una tuca garroneada

Es una percha, una goma, un garrón
es como un chicle no es broma, es un bajón!
guarda que engaña, no es el hombre araña...
es el hombre mosca...

C D Em
Y se comenta que pega medio kilo
C D Em
no tiene problemas todo es para él
C D
cuando se corta la torta,
Em
cuando se divide el papel
C D
siempre esta el...el hombre mosca

C D Em
Su flora intestinal es toda verde
y tiene un radar en la nariz
menos yerba todo pierde y la caja nunca le da
sin vergüenza va...el hombre mosca!

G
Te toca, te pisa el talón, te cachetea
C
si te queda el último bocado el te lo papea
D
no para siempre te mosquea
G
porque es el hombre mosca

C D Em
Y se comenta que pega medio kilo
no tiene problemas todo es para él
C D
cuando se corta la torta,
Em
cuando se divide el papel
C D
siempre esta el...el hombre mosca!

C D Em
Su flora intestinal es toda verde
y tiene un radar en la nariz
menos yerba todo pierde y la caja nunca le da
sin vergüenza va...el hombre mosca!

Y no discrimina amigos ni mujeres
familiares compañeros de ocasión
siempre disponible para despertar la irritación
que mosca sos...hombre mosca!


F C
Se te va a acabar ese latido
F C
hombre mosca alguien se va a cansar
F C G
pero siempre un zumbido de fondo vamos a escuchar

C F G Am
porque hay alguien que responde tras tu ausencia
F G Am
porque hay alguien que ya empezó a molestar
F G Am
te conoce como Mario y nunca te dice papá
F G
sin vergüenza va el mini-mosca...

F G Am
Cuando crezca le vas a enseñar tus trucos
F G Am
y en la escuela lo van a querer matar
F G Am
luego en la adolescencia no va a parar de mosquear
F G Am – G
y pronto sera un hombre mosca contra la humanidad
F G Am – G – F – G
contra la humanidad
F G Am – G – F – G - Am
contra la humanidad...


































. . . . . . .
C G Am G

C
Te quiero si te quiero
G Am G
voy andando como fiera tras tus pies amor
C G
Te veo y te deseo pero tu
Am G
tienes tu dueño y no te puedes safar

Am G C
Los días se pasan sin tí
Las noches se alargan sin tí
Dm G
Sin tu amor, sin tus besos...

C Am Em G
Ay si tuvieras libertad a tu lado yo estaría amor
Hey dame dame una señal cuando seas libre mi amor
F C G Am
Hay yo no puedo soportar no me quiero derrumbar
Mandame un mensaje, una señal, manda una señal de amor
Em Am
manda una señal amor...

C G Am G


Te veo acorralada de unos brazos que no te dejan mover
te deseo me deseas pero estas muy aprisionada corazón
Am G C
Y no viviré sin tu amor
Am G C Cm G
Y no pararé hasta tener tu amor y tus besos...


Hey estoy viviendo sin vivir estoy muriendo sin poder morir
Hey dime dime tell me too cuando seas libre mi amor
Hay no lo puedo soportar no me quiero derrumbar
Mandame un mensaje, una señal, mandame tu luz amor
manda una señal amor...

Am F C G 2 veces

Am F C G
Vivir sin tí vivir estarse muriendo sin morir
Estar sin tí estar estarse muriendo sin morir
Amor donde estaras manda un mensaje una señal
Y no no parare no vivire sin ti amor
no...











. . . . . .
A
Solo aqui F#m
, sentado sin saber que hacer
Bm E
Yo se que tu estas con él, y no regresarás por mi

A F#m
No tendré, palabras que decir tal vez
Bm E
Un beso para darte a ti, y un sueño que deje morir

D
Y en la mañana espero
Dm
Un corazón sincero
A F#m D E
Que solo busca libertad...

ESTRIBILLO
A E
Yo solo quiero olvidar
F#m D
Lo que he sufrido por ti
A E
Es difícil olvidarte
D E A
Si tu estas aquí , tu estas aquí...


A F#m
Solo aquí, sentado sin saber que hacer
Bm E
Yo se que tu estas con él, y no regresarás por mi

A F#m
No tendré, palabras que decir tal vez
Bm E
Un beso para darte a ti, y un sueño que deje morir

D
Y en la mañana espero
Dm
Un corazón sincero
A F#m D E
Que solo busca libertad...

ESTRIBILLO
A E
Yo solo quiero olvidar
F#m D
Lo que he sufrido por ti
A E
Es difícil olvidarte
D E
Si tu estas aquí
A E
Yo solo quiero olvidar
F#m D
Lo que he sufrido por ti
A E









. . . . . . .
Jason Mraz ft. Ximena Sariñana
Lucky

C

[Verso Jason]
C Am
Do you hear me, I'm talking to you
Dm G Em
Cross the water, across the deep blue ocean
Am Dm
Under the open sky, oh my
G
Baby I'm trying

[Verso Ximena]
C Am
Se que quiero cuando te vas
Dm G Em
Supe desde tiempo atrás y es que
Am Dm
Mi corazón no sabe querer
G Am
Hasta volverte a ver

[Coro Los 2]
Am Dm G
Suerte que despierto junto a ti
C C/B Am
Suerte que sentí lo que sentí
Dm G
Suerte que regresas para mí
C Am Em G
Ooooh ooh-oooooh ooh-ooooooh....

[Puente A 2 voces]
Dm Am G
Nadie tiene la razón
Dm
De que exista el amor
Am G Dm
Solo hay un tú y yo, la promesa es de los dos
Am G
Me esperaras aquí estaré lo se

[Coro Los 2]
Am Dm G
Suerte que despierto junto a ti
C C/B Am
Suerte que sentí lo que sentí
Dm G
Suerte que regresas para mí

Am Dm G
Suerte que hay mas por conocer
C C/B Am
Suerte que contigo crecere
Dm G
Suerte que te tengo al volver

[Verso Jason]
C Am
And so I'm sailing, through the sea
Dm G
To an island, where we'll meet
Em Am
You'll hear the music, fill the air
Dm G
I put a flower in you hair

[Verso Ximena]
C Am
Todo tiene final feliz
Dm G
Desde que te conocí
Em Am
No hay mas que las ganas de
Dm G
Estar y volver a empezar

[Coro Los 2]
Am Dm G
Suerte que despierto junto a ti
C C/B Am
Suerte que sentí lo que sentí
Dm G
Suerte que regresas para mí

Am Dm G
Suerte que hay más por conocer
C C/B Am
Suerte que contigo creceré
Dm G
Suerte que te tengo al volver

C Am Em G
oooooh oooh-oooooooh ooooh-ooooh
C Am Em G C
oooooh oooh-oooooooh ooooh-ooooh.....
. . . . . . . .
Sol Re Am Do Re
acostumbrado, equivocado
Sol Re Lam Do Re [sol Fa Do Fa Do Sol x2]
no veo el cielo, está nublado
Sol Re Am Do Re
apareciste sin que te buscara nadie,no esperaba encontrarte ahí
Sol Re Am
tal vez tu risa no tenía sombras, no tenía cara
Do Re
fue todo lo que ví
Mim Do
me prestaste un beso
Lam
me prestaste calma
Do Re Sol Sol Sol Fa Do Sol
me prestaste todo lo que me faltaba[na, na, na, naaa,naaa,naaa]

Sol Re Lam
tenés la receta justa para hacerme sonreir
Do Re
y todo el tiempo
Sol
sabés lo que me asusta
Re Am Do Re
sabés lo que me gusta estar con vos
Mim Do
me robaste el cuerpo
Lam
me robaste el alma
Do D
ya es tuya la voz con la que antés cantaba
Sol Sol Sol Fa Do Sol
[na, na, na, naaa, naaa, naaa]

Mim Do
me quitás el sueño
Lam
me quitás el habla
Do Re Sol
pero si estoy con vos no necesito nada

Sol Sol Sol Fa Do Sol
[na, na, na, naaa, naaa, naaa]

Mr. Jones, o pequeña semblanza de una familia tipo americana

Intro:
He is a jungleman, he is a mean motherfucker with a dick in his hand.

A
Mr. Jones abrió la puerta
D
Vio a su madre recién muerta
E A G#m, E
Y la sangre en el chaleco se limpió
A
Guardó a su madre en el ropero
D
Le puso mas leña al fuego
E A G#m, E
El invierno muy crudo se avecinó

D
Llamó a su esposa y le dijo:
A
Mamá está muerta en el ropero
B7 E
Por supuesto, si yo la asesiné

A
Ella puso mal la mesa
D
Le hundí un hacha en la cabeza
E A G#m, E
Y la sangre el tapizado me manchó

(¡Ay, que pena, nena!)

-- Solo --
A, D, E, A, G#m, E,
A, D, E, A, G#m, E,

D
Y Mr. Jones trabajaba
A
Y su esposa asesinaba
B7 E
Y los chicos correteaban por ahí
A
Se comían los pajaritos
D
Los perros y los gatitos
E A G#m, E
Y otros bichos que vagaban por ahí




D
Y llegó la policía
A
Con un carro y dos tranvías
B7 E
Para toda la familia encarcelar

A
Yo no sé por qué el sargento
D
Me llevó al destacamento
E D A
Si somos una familia muy normal
E D A
Si somos una familia muy normal
E D A A#dim, Adim, G#dim, Gdim, A#, A.
Si somos una familia muy normal



ACORDES

A#dim Adim G#dim Gdim
E----8-----7------6-----5-----I
B----7-----6------5-----4-----I
G----8-----7------6-----5-----I
D----7-----6------5-----4-----I
A----X-----X------X-----X-----I
E----X-----X------X-----X-----I









. . . . . . . .
Uno de los temas mas populares de nuestro rock.
Para todos los fans de MR. garcia .... entren
a www.saynomore.rock.net.ar. Sitio dedicado al ultimo
trabajo de charly....hay acordes,letras y las ultimas
novededes

Sol Re
Detras de las paredes
Mim Sim
que ayer se han levantado
Do Sol Fa - Re
te ruego que respires todavia.

Apoyo mis espaldas
y espero que me abraces
atravesando el muro de mis dias.

Do Sol
CORO: Y rasgu~a las piedras
Do Sol
Y rasgu~a las piedras
Do Mim-Re-Do-Sol/Si-Lam
Y rasgu~a las pie - ee - dras
Sol-Re-Fa-Do-Re
hasta mi...


Apenas perceptibles
escucho tus palabras
se acercan las bandas de rockn roll

Y sacuden un poco,
las paredes gastadas
diciendo las preguntas de tu voz

CORO: Y rasgu~a las piedras...

Lam Do Re
Y si estoy cansado de gritarte
Lam Do Re4-Re-Re#-Re
es que solo quiero despertarte


Y por fin veo tus ojos
que lloran desde el fondo
y empiezo a amarte con toda mi piel

Que ganas de abrazarte
y me sangra la mano
pero que libres vamos a crecer








A
Well uh you dawned on me and you bet I felt it,
E
I tried to be chill but you're so hot that I melted,

F#m
I fell right through the cracks,

D
And now I'm tryin to get back....

A
Before the cool dun run out, Ill be givin it my bestest

E
Nothin's gonna stop me but divine intervention

F#m
I reckon its again my turn,

D D7*
To Win some or learn some....



A E
But I wont hesitate

F#m
No more, No more

D D7* A
It can not wait; I'm Yours



A E
Well open up your mind and see like me
F#m
open up your plans & then your free
D
look into your heart and you'll find love love love
A E
Listen to the music of the moment come and sing/dance with me
F#m
I like happy melodies/family
D D7*
its a guide forsake their right to be loved loved loved loved loved


sure..

A E
There's no need to complicate
F#m
Our time is short
D D7*
This is our fate i'm yours..










. . . . .


YELLOW SUBMARINE


AFINAR MEDIO TONO ABAJOOO!!!


C D C G
In the town where I was born,
Em Am C D
Lived a man who sailed to sea.
C D C G
And he told us of his life,
Em Am C D
In the land of submarines.

C D C G
So we sailed unto the sun,
Em Am C D
Till we found the sea of green.
C D C G
And we lived beneath the waves,
Em Am C D
In our yellow submarine.


G D
We all live in a yellow submarine,
G
Yellow submarine, yellow submarine.
G D
We all live in a yellow submarine,
G
Yellow submarine, yellow submarine.

C D C G
And our friends are all aboard,
Em Am C D
Many more of them live next door.
C D C G
And the band begins to play.

G D

G D
We all live in a yellow submarine,
G
Yellow submarine, yellow submarine.
G D
We all live in a yellow submarine,
G
Yellow submarine, yellow submarine.



C D C G
Em Am C D
C D C G
Em Am C D


C D C G
As we live a life of ease,
Em Am C D
Everyone of us has all we need.
C D C G
Sky of blue and sea of green,
Em Am C D
In our yellow submarine.


G D
We all live in a yellow submarine,
G
Yellow submarine, yellow submarine.
G D
We all live in a yellow submarine,
G
Yellow submarine, yellow submarine.

G D
We all live in a yellow submarine,
G
Yellow submarine, yellow submarine.
G D
We all live in a yellow submarine,
G
Yellow submarine, yellow submarine.








. . . .
Intro:

Bm-G-D-A

Bm G D A [Bm-G-D-A]
Ella durmio, al calor de las brasas
Bm G D A [Bm-G-D-A]
Y yo desperté, queriendo soñarla
Bm G D A [Bm-G-D-A]
Algún tiempo atras, pensé en escribirle
Bm G D A [Bm-G-D-A]
Y nunca sortié, las trampas del amor

CORO:

Bm-G-D-A Bm-G-D-A
De aquel amor, de música ligera
Bm-G-D-A Bm-G-D-A
Nada nos libra, nada más queda


Bm G D A [Bm-G-D-A]
No le enviaré, cenizas de rosas
Bm G D A [Bm-G-D-A]
Ni pienso evitar, sus roces secretos


CORO:
Bm-G-D-A Bm-G-D-A
De aquel amor, de música ligera
Bm-G-D-A Bm-G-D-A Bm-G-D-A
Nada nos libra, nada más queda, nada más queda, nada más...

Solo......

CORO:
Bm-G-D-A Bm-G-D-A
De aquel amor, de música ligera
Bm-G-D-A Bm-G-D-A
Nada nos libra, nada más queda, nada más queda,
nada más queda, nada más queda, nada más queda,
[varias veces mismos acordes]











. . . . . . .
Bb C Dm Dm7
Yo sólo quiero pegar en la radio [bis]

F
Estoy ya cansado de estar endeudado
C
de verte sufriendo por cada centavo
Bb C
dejémoslo todo y vámonos para Miami.
F
Voy a lo que voy a volverme famoso
C
a la vida de artista vivir de canciones
Bb C
vender ilusiones que rompan diez mil corazones.


Coro:
Bb
Yo sólo quiero pegar en la radio
C Dm Dm7
para ganar mi primer millón
Bb
para comprarte una casa grande
G C
en donde quepa tu corazón.


Bb
Yo sólo quiero que la gente cante
Dm Dm7
por todos lados esta canción
Bb
desde San Juan hasta Barranquilla
G C
desde Sevilla hasta Nueva York.

Dm Bb C
Que te repito que me van a escuchar
Dm Dm7
en la radio en la televisión
Bb C Dm
y así será mi primer millón.

F
Apenas lleguemos llamamos a Emilio
C
yo tengo un amigo amigo de un amigo
Bb C
con línea directa al cielo de tantas estrellas.

F
Después andaremos de aquí para allá
C
con Paulina Rubio y Alejandro Sanz
Bb G C7
tranquila querida Paulina sólo es una amiga.

Coro.

Bb
Yo sólo quiero que la gente cante
C Dm Dm7
por todos lados esta canción
Bb
desde Kabul hasta Curacao
G C
desde el Callao hasta Panamá.

Coro.

Bb
Yo sólo quiero que la gente cante
C Dm Dm7
por todos lados esta canción
Bb
de Guayaquil a Santo Domingo
G C
desde Tijuana hasta el Salvador.

Bb C Dm Dm7
Échale pa' lante... o échale pa' allá
Bb C Dm Dm7
que echa pa' delante echa pa' delante
Bb C Dm
y echa pa' delante y echa pa' delante.

Bb C Dm
Ya quiero salir de esta bicicleta
Bb C Dm
salir a rumbear sin pensar en la cuenta
Bb C Dm
comprarte un vestido de Oscar de la Renta
Bb C Dm
tranquila que ahí viene mi primer millón.

Bb C Dm Dm7
Yo sólo quiero pegar en la radio [4 veces].


Coro.

F Bb
Yo sólo quiero que la gente cante
C Dm Dm7
por todos lados esta canción
Bb
desde San Juan hasta Barranquilla
G C
desde Madrid hasta Nueva York.

Coro.






Bm9 D7/C#
Hey, slow it down
D Bm9
Whataya want from me?
D Bm9
Whataya want from me?

Bm9 D7/C#
Yea, I'm afraid
D Bm9
Whataya want from me?
D Bm9
Whataya want from me?

Bm9
There might've been a time
D7/C#
When I would give myself away
D Bm9
Oh, once upon a time
D Bm9
I didn't give a damn
Bm9 D7/C#
But now here we are
D Bm9
So whataya want from me?
D Bm9
Whataya want from me?

G A Bm9 D
Just don't give up, I'm workin' it out
G A Bm9 D
Please don't give in, I won't let you down
G A Bm9 D
It messed me up, need a second to breathe
G A Bm9 D
Just keep comin' around
G A Bm9 D
Hey, whataya want from me?
G A
Whataya want from me?


Bm9 D7/C#
There, it's plain to see
D Bm9
that baby, you're beautiful
D Bm9
And there's nothing wrong with you
Bm9 D7/C#
It's me, I'm a freak
D Bm9
But thanks for lovin' me,
D Bm9
‘cause you're doing it perfectly

Bm9
There might have been a time
D7/C#
when I'd have let you slip away
D Bm9
I wouldn't even try, but I think
D Bm9
you could save my life


G A Bm9 D
Just don't give up, I'm workin' it out
G A Bm9 D
Please don't give in, I won't let you down
G A Bm9 D
It messed me up, need a second to breathe
G A Bm9 D
Just keep comin' around
G A Bm9 D
Hey, whataya want from me?
G A
Whataya want from me?

Repeat: G, A, Bm9, D
Just don't give up on me

Bm9 D7/C#
D Bm9
I won't let you down

Repeat Chorus 2x, end on Bmin















. . . . . . .
G Em G Em
Sé que vos me amás, sabés que yo te amo,
Am C F G D
mi amor por vos es único pero no es mi único amor
G Em G Em
Sé que vos me amás, sabés que yo te amo,
Am C F G
mi amor por vos es único pero no es mi único amor

C G D Bm Riff1
Bueno, anoche lo pasamos muy bien, nos podríamos volver a ver

Riff1
e|----------------
B|----------------
G|----------------
D|----------------
A|-5-7-9-7-5-5/7~-
E|----------------

C G D G
Ella supo que el pendejo flasheó y por las dudas le dijo otra vez

Sé que vos me amás, sabés que yo te amo,
mi amor por vos es único pero no es mi único amor

Pueblo-chico-infierno-grande, ¿sabés? Si se enteran tus padres esta vez
voy a terminar en problemas y yo no quiero líos con la ley

Em G Em G
Así va a ser mejor, me conocés muy bien;
Em G C D G
No me sigas, no pierdas tu tiempo, soy libre y vos también


Solo
e|------------------------------------------------------------------------
B|------------------------------------------------------------------------
G|-------------------------------------------------------------------9-12-
D|------------------------------9--------------------5----7-----9-12------
A|--5---5-5/7-------5---5-7-7/9---9-7~--7-5-3-3-5-7---6----8--------------
E|----7-------7~--7---7--------------------------------8----10------------


Pueblo-chico-infierno-grande, ¿sabés? Si se enteran tus padres esta vez
voy a terminar en problemas y yo no quiero líos con la ley

Así va a ser mejor, me conocés muy bien;
No me sigas, no pierdas tu tiempo, soy libre y vos también

Sé que vos me amás, sabés que yo te amo,
Am C F G C F G
mi amor por vos es único pero no es mi único amor, pero no es mi único amor,
C F C F
pero no es mi único, pero no es mi único,
C F G Em C Riff2 y D
pero no es mi único amor, ooor, amor

Riff 2 Nota final: G
e|-------- |--0-
B|-------- |--0-
G|-------- |--0-
D|--9-7~- |--5-
A|-------- |--5-
E|-------- |--3-


. . . . . .

****NAPM****
_____________________
el arpegio de casi toda la cancion va asi:

Em A D G
E|---------7-------|---------5-------|---------5-------|---------3---2---|
B|-----8-------8---|-----5-------5---|-----7-------7---|-----3---------3-|
G|---9---9---9---9-|---6---6---6---5-|---7---7---7---7-|---4---4---4-----|
D|-----------------|-----------------|-----------------|-----------------|
A|-----------------|-----------------|-5---------------|-----------------|
E|-0---------------|-5---------------|-----------------|-3---------------|

Y el arpegio en el coro va asi:

D A
E|---------2-------|---------0-------|
B|-----3-------3---|-----2-----------|
G|---2---2---2---2-|---2---2---------|
D|-0---------------|-----------------|
A|-----------------|-0---------------|
E|-----------------|-----------------|


Intro:
Em A D G
Em A D G
Uh uh uh uh uh uh uh

Letra:

Em A D G
Ella Despidio a su amor, el partio en un barco en el muelle de San Blas
Em A D G
El juro y que volveria y empapada en llanto ella juro que esperaria
Em A D G
Miles de lunas pasaron y siempre ella estaba en el muelle esperando
Em A D G
Muchas tardes se anidaron se anidaron en su pelo y en sus labios.

Em A D G
Uh uh uh uh uh uh uh [2 veces]

Em A D G
Llevaba el mismo vestido y por si el volviera no se fuera a equivocar
Em A D G
Los cangrejos le mordian sus ropajes, su tristeza y su ilusion
Em A D G
Y el tiempo se escurrio y sus ojos se le llenaron de amaneceres
Em A D G
Y del mar se enamoro y su cuerpo se enrraizo en el muelle.

Coro

D A D A
Sola, sola, en el olvido. Sola, sola, con su espiritu
D A D A
Sola, sola, con su amor el mar. Solaaa, en el muelle de San Blas.


Em A D G

Em A D G
Su cabello se blanqueo pero ningun barco a su amor le devolvia
Em A D G
y en el pueblo le decian, le decian la loca del muelle de San Blas
Em A D G
Y una tarde de abril la intentaron transladar al manicomio
Em A D G
Nadie la pudo arrancar y del mar nunca jamas la separaron.


Coro[1 vez]

Este arpegio va despues del coro, necesitas oir el disco para
Que sepas donde entra y que ritmo lleva:

D
E|-------------3---------------3--------3---2---0-------3---2---0---
B|-----3---2-----------3---2----------3---3---3---3---3---3---3---3-
G|---2---2---2---2---2---2---2---2--2---------------2---------------
D|-0---------------0------------------------------------------------
A|------------------------------------------------------------------
E|------------------------------------------------------------------

Uooooooooh oooh oooh
-------------3---------------3--------3---2---0-------3---2---0---|
-----3---2-----------3---2----------3---3---3---3---3---3---3---3-|
---2---2---2---2---2---2---2---2--2---------------2---------------|
-0---------------0------------------------------------------------|
------------------------------------------------------------------|
------------------------------------------------------------------|


coro [2 veces]

al final de este coro hay un espacio y luego tocar lo que sigue
marcando los acrdes de esta manera:

Am G D7
E|-5-5-x-5-x-5-x-x-|-3-3-x-3-x-3-x-x |-5-5-x-5-x-5-x-x-|
B|-5-5-x-5-x-5-x-x-|-3-3-x-3-x-3-x-x-|-7-7-x-7-x-7-x-x-|
G|-5-5-x-5-x-5-x-x-|-4-4-x-4-x-4-x-x-|-5-5-x-5-x-5-x-x-|
D|-7-7-x-7-x-7-x-x-|-5-5-x-5-x-5-x-x-|-7-7-x-7-x-7-x-x-|
A|-7-7-x-7-x-7-x-x-|-5-5-x-5-x-5-x-x-|-5-5-x-5-x-5-x-x-|
E|-5-5-x-5-x-5-x-x-|-3-3-x-3-x-3-x-x-|-5-7-x-7-x-7-x-x-|

Am Am G G Am Am G G
UOOOOH OH OH OH OH OH YEH EH EH EH

D7 D7 G G
Se quedo, se quedo, sola, sola.
D7 D7 G G
Se quedo, se quedo, con el sol y con el mar
D7 D7 G G
Se quedo ahi, se quedo hasta el fin. Se quedo ahi, se quedo,
D7 D7 G G
en el muelle de San Blas UOOOOH OH OH OH
D7 D7 G G
Sola, Sola se quedo.










. . . . .
Intro: [D-C-G] x2

G D
Está mal, no te toques más.
Am Bm D
La marihuana no hace bien, es muy mala, te hace ver otra realidad.
G D
Te vas a atar a la fidelidad.
Am Bm D
Homosexual es una mala palabra no es de gente normal.
Am C G
Decis orgia y gritan pornografia, no lo intentes cantar jamas.
Bm C G
Esta vida debe ser sostenida con toda seriedad.

D C G
No escucho y sigo por que mucho de lo que esta prohibido me hace vivir,
D C G
no me persigo por que mucho de lo que esta prohibido me hace feliz.
Am Bm D
Lo reprimido, cuando esta cautivo, te pide salir.

G D
No pasas [te vestis muy mal],
Am Bm D
no comprometas mi trabajo muchacho, correte para atras,
G D
Sexo oral entre papa y mama
Am Bm D
A esa secuencia con frecuencia la pienso pero ellos nunca lo haran
Am C G
Muchas manzanas son las que hoy y mañana se cruzan y se van a cruzar.
Bm C G
Y en algunas se encuentra la que algunos llaman felicidad.

D C G
Me escucho y sigo por que mucho de lo que esta prohibido me hace vivir,
D C G
no me persigo por que mucho de lo que esta prohibido me hace feliz.
Am Bm D
Lo reprimido, cuando esta cautivo, te pide salir.






. . . . .
C G Am F
C G Am F


C G Am F
Tu equipo volvió a ganar,
te prendieron mil bengalas hoy,
la banda grita tu nombre y ves,
C G F
como la popular se va a caer


Am7 F G
Pero tu estrella no está más.
Am7 F G
Se la llevó la mañana...


C G Am F
Arde la ciudad, llueve en tu mirada gris,
C G F
la gente festeja y vuelve a reir,
pero este carnaval, que hoy no te deja dormir,
mires donde mires ella esta ahí


C G Am F
La vida siempre es así,
te da y te quieta por nada
aunque estes solo, sin corazón
C G F
ahora tenes que seguir la funcion

Am7 F G
y es una fiesta el bodegón
Am7 F G
donde se junta la hinchada


Arde la ciudad, llueve en tu mirada gris,
la gente festeja y vuelve a reir,
pero este carnaval, que hoy no te deja dormir,
mires donde mires ella esta ahi


. . . . .
e|----------------------------------------------------
B|----------0-1----------------------------------------
G|------------------------------0-2----------------- 4x than words
D|-----2---------------------------------------------
A|--0------------------------3-----------------------
E|-------------------------1--------------------------

[chords & lyrics]
Intro: 2x Am F

Am
Psychic spies from China
F
Try to steal your mind`s elation
Am
Little girls from Sweden
F
Dream of silver screen quotations
C G
And if you want these kind of dreams
F Dm 2x [Am F]
It`s Californication

Am
It`s the edge of the world
F
And all of western civilization
Am
The sun may rise in the East
F
At least it settles in the final location
C G
It`s understood that Hollywood
F Dm 2x [Am F]
Sells Californication

Am
Pay your surgeon very well
F
To break the spell of aging
Am
Celebrity skin is this your chin
F
Or is that war your waging

Am F
First born unicorn
Am F
Hard core soft porn

C G Dm Am
Dream of Californication
C G Dm 2x [Am F]
Dream of Californication

Am
Marry me girl be my fairy to the world
F
Be my very own constellation
Am
A teenage bride with a baby inside
F
Getting high on information
C G
And buy me a star on the boulevard
F Dm 2x [Am F]
It`s Californication

Am
Space may be the final frontier
F
But it`s made in a Hollywood basement
Am
Cobain can you hear the spheres
F
Singing songs off station to station
C G
And Alderon`s not far away
F Dm 2x [Am F]
It`s Californication

Am
Born and raised by those who praise
F Am
Control of population everybody`s been here and
F
I don`t mean on vacation

Am F
First born unicorn
Am F
Hard core soft porn

C G Dm Am
Dream of Californication
C G Dm
Dream of Californication
C G Dm Am
Dream of Californication
C G Dm 2x [Am F]
Dream of Californication

Solo

Am
Destruction leads to a very rough road
F
But it also breeds creation
Am
And earthquakes are to a girl`s guitar
F
They`re just another good vibration
C G
And tidal waves couldn`t save the world
F Dm 2x [Am F]
From Californication


Am
Pay your surgeon very well
F
To break the spell of aging
Am
Sicker than the rest, there is no test
F
But this is what you`re craving

Am F
First born unicorn
Am F
Hard core soft porn

C G Dm Am
Dream of Californication
C G Dm
Dream of Californication
C G Dm Am
Dream of Californication
C G Dm 2x [Am F]
Dream of Californication



















. . . . . . .
INTRO
1] |-----------------------|------------------|
2] |-----------------------|------------------|
3] |-----------------------|------------------|
4] |------------7------6---|------------7---6-|
5] |—-3-5/7---8---8--7---7-|--3-5/7---8---8---|
6] |-5---------------------|-5----------------|
Repetir 3 veces

Lam
Esperaria que no te asuste
Mim
este instante de sinceridad
Sol
mi corazon,
Mi7
vomita su verdad
Lam
Es que hay una guerra entre dos
Mim
por ocupar el mismo lugar
Sol
la urgencia
Mi7
o la soledad
Lam Fa
La soledad fue tan sombria que..
Do
no te dejó encontrar
Mi7
tu naturaleza divina,
Lam
la urgencia ganó esta vez
Fa Do
dispuesta a penetrarte
Mi7
prepotente y altiva

[el estribillo va con el arreglo de la intro]

ESTIRBILLO

Lam Fa – Mi7
por la noche la soledad desespera
Lam Fa – Mi7
por las noches la soledad desespera
Lam Fa – Mi7
y por la noche la soledad desespera
Lam Fa – Mi7
por las noches la soledad desespera
Lam
espera por ti,
Fa – Mi7
espera por él
Lam
espera por mi también,
Fa – Mi7
por aquel


que con violencia sujeta su alma a una brutal represión
esperando apaciguarse
o confia en el paso del tiempo
como otra solución
para encontrar la calma
pero te pone loco en las noches
rogando entrar
en los confines mas oscuros
despues te arrodillas
ante el amor maternal
suplicando ternura
por la noche la soledad desespera
por la noche la soledad desespera
que por la noche la soledad desespera
por la noche la soledad desespera
Rem
esperan por ti
Lam
esperan por el
Sol
esperan por Mi
Lam
tambien por aquel
Rem
esperan por ti
Lam
por él
Sol