Bueno mis amigos taringueros ... les comento , me compre una guitarra y aprendi un poco , les dejo la info para alguno que le sirva :



Guitarra y sus partes

Tocar la guitarra Facil

Primero :

Como leer una Tablatura?


Tablaturas

1ra cuerda->Mi - E||-----------------|
2da cuerda->Si - B||--1--------------| <- El nº q sale, es el numero del traste a tocar
3ra cuerda->Sol- G||----0------------| <- El 0 es la cuerda al aire
4ta cuerda->Re - D||-----------------|
5ta cuerda->La - A||-----------------|
6ta cuerda->Mi - E||-----------------|

Una ves que aprendieron (es re facil leer tablaturas)

Ahora les dejo unas Tablaturas faciles ... (no es tocar la guitarra , para tocar la guitarra nesesitas tocar con acordes ... pero nesesitas la re practica , si recien empesas y queres llevar la guitarrita y tocar algo para hacer facha aprendete esto que con 30 min de practica ya te sale )

Bueno aca las mas conocidas


les dejo Cumpleaños Feliz o El payaso plin-plin (es la misma cancion con distinta letra) hace poco me entere xD

Mi - E||------------------------1----0----------------------------3----1----|
Si - B||--1----1----3------1----------------1----1----3------1--------------|
Sol- G||--------------------------------------------------------------------|
Re - D||--------------------------------------------------------------------|
La - A||--------------------------------------------------------------------|
Mi - E||--------------------------------------------------------------------|

------------8------5----1----1------0---------------6----6----5----|
--1----1---------------------------------3-------------------------|
-------------------------------------------------------------------|
-------------------------------------------------------------------|
-------------------------------------------------------------------|
-------------------------------------------------------------------|

--1----3-----------1-------||
---------------------------||
---------------------------||
---------------------------||
---------------------------||
---------------------------||


Estrellita

MI - E-------------0-0--------------------------------
SI - B--------3-3-------3--------1-1--0-0-------------
SOL-G-0-0------------------------------------2-2--0----
RE - D----------------------------------------------
LA - A----------------------------------------------
MI - E----------------------------------------------

----------------------------------------------
--3-3--1-1--0-0-------3-3--1-1--0-0-----------
---------------------2----------------------2--------
----------------------------------------------
MI - E------------------------------------------------------


--------0-3------------0-3--8-10-8-6-5-3-1----------------
--1-1-1------1-1-1------------------------------------
----------------------------------------------
----------------------------------------------

-----------0-0--------------------------------
------3-3-------3--------1-1--0-0-------------
-0-0--------------------------------2-2--0----
----------------------------------------------
----------------------------------------------
----------------------------------------------


La cucaracha

MI - E-----------1-5-----------1-5--1-1-0-0-----------------------
SI - B--1-1-1------1-1-1----------------------3-3-1-----------------
SOL- G------------------------------------------------------
RE - D------------------------------------------------------
LA - A------------------------------------------------------
------------------------------------------------------
------------------------------------------------------
------------------------------------------------------
------------------------------------------------------


------1-1-5-5-8-5--8-10-8-6-5-8-6-3-------------------
--1-1-------------------------------------------------
------------------------------------------------------
------------------------------------------------------
------------------------------------------------------
------------------------------------------------------


------0-0-3-3-6-3--8-10-8-6-5-3-1---------------------
--1-1-------------------------------------------------
------------------------------------------------------
------------------------------------------------------
------------------------------------------------------
------------------------------------------------------


Ahora les dejo unas de rock :B


La primera siempre
HUMO SOBRE EL AGUA de Deep Purple !
|-0-3-5---0-3-6-5---0-3-5-3-0--------

IRON MAN de Black Sabbath
G---------------------------------
D---------------------------------
A-2-5--5-7-7--109-109-109-5-5-7-7-
E--------------------------------- (x7)

G---------------------------------
D---------------------------------
A-----5---------------------------
E-7-7---7-7-6-555-04567----------- (x3)

G---------------------------------
D---------------------------------
A-2-5--5-7-7--109-109-109-5-5-7-7-
E--------------------------------- (x4)

G---------------------------------------
D-------------------789------------789--
A-7---5-----567-789--------567-789------
E--------77-------------77-------------- (x2)


FLACA de Andres Calamaro (intro)
e------------------------------------------------------------------
B------------4------------5-----------3-1---3-----------4--------
G---4-2-0-2-4----4-2-0-2-4----4-2-0-2-4-----4---4-2-0-2-4---4-2-0--
D------------------------------3-------------------------------------
A------------------------------------------------------------------
E------------------------------------------------------------------



SUNSHINE OF YOUR LOVE de Cream
1:
e-------------------------------------------------
B-------------------------------------------------
G-------------------------------------------------
D------12--12---10---12---------------------------
A------------------------12--11--10------b8-------
E------------------------------------10------10---
2:
e-------------------------------------------------
B-------------------------------------------------
G------12--12---10---12---------------------------
D------------------------12--11--10------b8-------
A------------------------------------10------10---
E-------------------------------------------------



SATISFACTION de los Rolling Stones


e-------------------------------------------------
B-------------------------------------------------
G-------------------------------------------------
D-------------------------------------------------
A-------------------------------------------------
E---2--2---2-4-5--555-4444------------------------


Guns N' Roses - Sweet Child O' Mine
E|---------3--2------------3--2-------------------|
B|---3----------3----3----------3-----------------|
G|-----3-2--3----------3-2--3-------------------|
D|-0--------------0---------------0---------------|
A|--------------------------------------------------|
E|--------------------------------------------------|

Back in Black - AC/DC

Riff

|-------2-2-2-----------3/0-------------------|--------2-2-2------------------------------------------|
|-------3-3-3---2-2-2-------3/0-------------|--------3-3-3----2-2-2-------------------------------|
|-1----2-2-2---2-2-2--------------2/0-------|-1------2-2-2----2-2-2-------------------------------|
|-2----0-0-0---2-2-2----------------------2-|-2------0-0-0----2-2-2-------------------------------|
|-2--------------0-0-0------------------------|-2-----------------0-0-0------2----2-0--2-1--2-2--|
|-0--------------------------------------------|-0---------------------------------3--------------------|


No Me Arrepiento De Este Amor

Intro

|-----------------------------|-------------------------------|------------------------------------|--------------------------------------|
|-----------------------------|-------------------------------|------------------------------------|--------------------------------------|
|-----------------------------|-------------------------------|------------------------------------|--------------------------------------|
|-----------------------------|-------------------------------|------------------------------------|--------------------------------------|
|-----------------------------|---------3--5--5---------5--|--5--5--6--5--3--3-------------|---------3--5--3--------------------|
|--3--5--6--6--5--5--3---|--3--6------------6--6------|------------------------6--6--5--|--5--5-------------6--6--5--5--3-|
Se repite

Esta es la primera cancion con acordes de rock que se aprende :

Highway to hell - AC/DC

Intro

|-----------------------------------------------------------------------------------------|
|-----------2--2--2-----------3--3--3------3--3--3-----3--3--3------2-----2--2-|
|-----------2--2--2-----------2--2--0------2--2--0-----2--2--0------0-----2--2-|
|-----------2--2--2-----------0--0--0------0--0--0-----0--0--0------0-----2--2-|
|-----------0--0--0-----------x--x---x------x--x--x------x--x--x------x------0--0-|
|------------------------------2--2--3-------2--2--3-----2--2--3------3-----------|

Espero que les sirva para los que recien empiesan , es muy jodido la verdad ... requiere mucha practica y es re adictivo , pero tocar bien es hermoso , si hay un buen pasatiempo es este suerte y ojala que les salgan todas!