Buenos días, bajistas de T! ahora les traigo una tablatura muy fácil para aquellas personas que están aprendiendo a tocar el bajo

El tema es "Another One Bites The Dust"; de Queen... es un tema muy conocido... para el que no lo ha escuchado les dejo el tema en un vídeo de You Tube:


Link: http://www.youtube.com/watch?v=rY0WxgSXdEE

Nota!: Si no sabes leer tablaturas no te hagas problema que al final del post dejo una breve explicación


tablatura dijo:Another One Bites The Dust

G-|-----------------------------------|
D-|-----------------------------------|
A-|-----------------------------------| x2
E-|---5-3-0---0--0----0-0-0---3-0-5---|

G-|-------------------------------|
D-|-------------------------------|
A-|-------------------------------| x5
E-|---0---0--0----0-0-0---3-0-5---|

G-|------------------------|
D-|--------------0--5------|
A-|---3-3---3-3------------|
E-|--------------------3---|

G-|-----------------------|
D-|-----------------------|
A-|---3-3---3-3---5-------|
E-|-------------------3---|

G-|------------------------|
D-|--------------0--5------|
A-|---3-3---3-3------------|
E-|--------------------3---|

G-|-------------------------|
D-|-------------------------|
A-|---0-0---0-0--5----------|
E-|------------------5--3---|

G-|-------------------------------|
D-|-------------------------------|
A-|-------------------------------| x3
E-|---0---0--0----0-0-0---3-0-5---|

G-|----------------------------------------|
D-|----------------------------------------|
A-|----------------------------------------|
E-|---3---3-3-3---5--5--5---3------5---3---|

G-|-------------------------------|
D-|-------------------------------|
A-|-------------------------------| x4
E-|---0---0--0----0-0-0---3-0-5---|

G-|------------------------|
D-|--------------0--5------|
A-|---3-3---3-3------------|
E-|--------------------3---|

G-|-----------------------|
D-|-----------------------|
A-|---3-3---3-3--5--------|
E-|-------------------3---|

G-|------------------------|
D-|--------------0--5------|
A-|---3-3---3-3------------|
E-|--------------------3---|

G-|--------------------------|
D-|--------------------------|
A-|---0-0---0-0--5-----------|
E-|------------------5---3---|

G-|-------------------------------|
D-|-------------------------------|
A-|-------------------------------| x2
E-|---0---0--0----0-0-0---3-0-5---|

G-|-----------------------------------|
D-|-----------------------------------|
A-|-----------------------------------|
E-|---5-3-0---0--0----0-0-0---3-0-5---|

G-|-----------------------------|
D-|-----------------------------|
A-|---0-0---0-0--5--------------|
E-|------------------5---3--0---|

G-|-------------------------|
D-|---x----x----x----x--x---|
A-|---x----x----x----x--x---|
E-|---x----x----x----x--x---|

G-|-----------------------------------|
D-|-----------------------------------|
A-|-----------------------------------|
E-|---5-3-0---0--0----0-0-0---3-0-5---|

G-|-------------------------------|
D-|-------------------------------|
A-|-------------------------------| x3
E-|---0---0--0----0-0-0---3-0-5---|

G-|-----------------------------------|
D-|-----------------------------------|
A-|-----------------------------------|
E-|---5-3-0---0--0----0-0-0---3-0-5---|

G-|------------------------|
D-|--------------0--5------|
A-|---3-3---3-3------------|
E-|--------------------3---|

G-|-----------------------|
D-|-----------------------|
A-|---3-3---3-3--5--------|
E-|-------------------3---|

G-|------------------------|
D-|--------------0--5------|
A-|---3-3---3-3------------|
E-|--------------------3---|

G-|-----------------------------|
D-|-----------------------------|
A-|-----------------------------|
E-|---3-3---3-3--5------5---3---|

G-|-------------------------------|
D-|-------------------------------|
A-|-------------------------------| x2
E-|---0---0--0----0-0-0---3-0-5---|

G-|-----------------------------------|
D-|-----------------------------------|
A-|-----------------------------------|
E-|---5-3-0---0--0----0-0-0---3-0-5---|

G-|--------------------------|
D-|--------------------------|
A-|---0-0---0-0--5-----------|
E-|------------------5---3---|

G-|-------------------------------|
D-|-------------------------------|
A-|-------------------------------|
E-|---0---0--0----0-0-0---3-0-5---|

G-|-----------------------------------|
D-|-----------------------------------|
A-|-----------------------------------|
E-|---5-3-0---0--0----0-0-0---3-0-5---|

G-|------------------------|
D-|--------------0--5------|
A-|---3-3---3-3------------|
E-|--------------------3---|

G-|-----------------------|
D-|-----------------------|
A-|---3-3---3-3--5--------|
E-|-------------------3---|

G-|------------------------|
D-|--------------0--5------|
A-|---3-3---3-3------------|
E-|--------------------3---|

G-|------------------|
D-|------------------|
A-|---0-0---0-0--5---|
E-|------------------|

G-|-----------||
D-|-----------||
A-|-----------||
E-|---5---3---||



Como leer tablaturas:

>>Click Aqui<<

Antes de terminar el post les cuento que yo también soy un principiante, es mas, el lunes pasado me compre el bajo y no tenia la mas mínima idea de como se usaba y menos de como leer partituras y tablaturas, pero gracias al Internet aprendí muchas cosas, llevo solo 4 días con el bajo y ya saque un tema entero... así que les digo que no se rindan con practica y dedicación van a lograr muchas cosas.

Al que le interese... este es un modelo exacto del bajo que me compre el pasado lunes un Stagg modelo SG con un ampli de 40 Wats a $1600 (precio en mendoza)

Tablatura para Iniciantes en Bajo Eléctrico