tablura del solo de november rain

Bueno en mi primer post les dejoel solo de novemer rain de guns n roses !!!!!!



E|-----------8-----------------------------8------------8~~~~~~-------|
B|-b8---r8b----8---r(8)p6--8brbr----r8b------r8--5br~~----------5brbr-|
G|--------------------------------------------------------------------|
D|--------------------------------------------------------------------|
A|--------------------------------------------------------------------|
E|--------------------------------------------------------------------|

E|------------------------------------------------------------------|
B|-5~~----------8------------------------8--------------------------|
G|-----7p5--7/9---97--5---b8-------r8b----8--r(8)p6--8brb-----r8b--|
D|------------------------------------------------------------------|
A|------------------------------------------------------------------|
E|------------------------------------------------------------------|

E|-8-8br---10b(hold)-8h10p8----8-------13p12-----13p12----13b---13~~~~--|
B|--------------------------10---11b----------13-------13---------------|
G|----------------------------------------------------------------------|
D|----------------------------------------------------------------------|
A|----------------------------------------------------------------------|
E|----------------------------------------------------------------------|

E|----12--13-12h13p12---------12-13br-13-12-12b-12~~~-20--(20)~~~-|
B|-15-----------------15~~-15-------------------------------------|
G|----------------------------------------------------------------|
D|----------------------------------------------------------------|
A|----------------------------------------------------------------|
E|----------------------------------------------------------------|

E|-19-19--1917--1715--1513--13--1312--12--12h13p12-----12h13~~~|
B|------------------------------------------------------15---------|
G|-----------------------------------------------------------------|
D|-----------------------------------------------------------------|
A|-----------------------------------------------------------------|
E|-----------------------------------------------------------------|

E|-12-13-12h13p12--------12---------------------------------------------|
B|----------------15p13-----13---15h17p15-15-12h13-12h13p12--------12---|
G|-----------------------------------------------------------14p12------|
D|----------------------------------------------------------------------|
A|----------------------------------------------------------------------|
E|----------------------------------------------------------------------|

E|-------------------------------------------------------------|
B|----10-----------------------------13~~~~--------------13~~~-|
G|-12----10--12--10--9~~~~--12p109-----------10h12p109-------|
D|-------------------------------------------------------------|
A|-------------------------------------------------------------|
E|-------------------------------------------------------------|

E|--------------------------15--------------------|
B|-------------15b-------------r15---13-----(13)b-|
G|-10h12p109-------------------------------------|
D|------------------------------------------------|
A|------------------------------------------------|
E|------------------------------------------------|

4 comentarios - tablura del solo de november rain

@MrPetrozza
mejor aplicale al guitar pro ;D
@juan_guns_rules4
tablura del solo de november rain


TABLATTTTTTTTTTURA! PELOTUDO HIJO DE PUTA!
@Exsocet98
malisimo amigo,le falta de todo,aprende a hacer tabs amigo ,no c entiende un carajo site das cuenta son estiradas las 1eras
@Felipe_destros
si no las entienden copienlas en el block de notas y hay se ajustan...