como aprender a tocar solos de guitarras

hola amigos de T!!!!!!!!aqui les voy a enseñar a tocar un solo de guitarra pero los solos se tocan con los punteos,chequea esto


---Mira con Los TABs vas a poder tocar tus punteos, ¿no te digo que vas a salir todo un experto en la guitarra que hasta punteos vas a ser? Bueno lo que tienes que a prender acá, es que el tabs es como una partitura que esta hecho para la guitarra, claro que no te da toda la información que te da una partitura, como por ejemplo los tiempos que tienes que tocar cada nota en el punteo, pero para eso tu tienes que haber escuchado antes la canción de la cual quieres tocar usando el tabs. El tabs esta compuesta de seis líneas horizontales que representan las seis cuerdas de la guitarra, la línea de arriba es la primera cuerda y la ultima línea es la sexta.



e------------------------------primera cuerda
B------------------------------segunda cuerda
G------------------------------tercera cuerda
D------------------------------cuarta cuerda
A------------------------------quinta cuerda
E------------------------------sexta cuerda



Ahora dentro de esta líneas van a estar representadas unos números que representan el traste al que tú debes tocar por ejemplo



e----1-------------------------
B------------------------------
G-------3----------------------
D----------5-------------------
A------------------------------
E------------------------------



Esto quiere decir de que tu debes comenzar a ser el punteo (o solo) de guitarra en la cuerda primera en el traste 1 después sigue la cuerda tercera en el traste 3, después sigues el la cuerda cuarta en el traste 5, como ves no es difícil solo tienes que seguir los números y ya esta hecha el punteo, ahora si tu ves una línea arriba que engancha varios números esto solo quiere decir que tocas la cuerda en el traste correspondiente y sin soltar la cuerda ni tocar de nuevo subes o bajas tu dedo(según los números)que está tocando la cuerda en el mástil en el número correspondiente, no te asustes, en el ejemplo lo vas a entender mejor:



Ahora pude ser que te encuentres con unos números encima de otras entonces estos tienes que tocarlos al mismo tiempo y también puede ser un acorde te darás cuenta por que ponen el nombre arriba ejemplo:



e--2---------------------------primera cuerda
B--3---------------------------segunda cuerda
G----4-------------------------tercera cuerda
D------------------------------cuarta cuerda
A------------------------------quinta cuerda
E------------------------------sexta cuerda



Bueno acá ves que hay dos notas una encima de otra sin dejar un espacio entonces esto lo tienes que tocar al mismo tiempo, o sea la primera cuerda en el traste 2 y la segunda cuerda en el traste 3, presionas las dos cuerdas juntas y las tocas al mismo tiempo y de ahí sigues normal con la otra nota que es la tercera cuerda en el traste 4.


Dom = cm



e----3--------------------------primera cuerda
B----4--------------------------segunda cuerda
G----5--------------------------tercera cuerda
D----5--------------------------cuarta cuerda
A----3--------------------------quinta cuerda
E-------------------------------sexta cuerda



Esto es un acorde, ¿ves arriba? Va el nombre del acorde y abajo como se ponen los dedos según los números, con la practica podrás dominarlo, bien hay mucho más para aprender pero con esto estoy seguro que sorprenderás en tu barrio.

bueno amigos de taringa eso fue todo se despide su amigo ortfort porfa comenten y comenten

3 comentarios - como aprender a tocar solos de guitarras

@supermilk -4
Genial!! Siempre he querido aprender a tocar la guitarra eléctrica, y poder ser como este...

como aprender a tocar solos de guitarras
@usb1
supermilk dijo:Genial!! Siempre he querido aprender a tocar la guitarra eléctrica, y poder ser como este... <SPAN style="FONT-STYLE: italic"></SPAN>

Es Slash