Como tocar la guitarra


COMO APRENDER LEER TABLATURAS DE GUITARRA

Las tablaturas para guitarra son como una partitura que muestra la posición de los dedos en la guitarra, pero que no da datos de tonos ni duración de las notas. Asi que para tocar una canción a traves de una tablatura, la debes haber escuchado antes para conocer el ritmo y sonido de la guitarra

En primer lugar, nos interesa saber el nombre de las partes que componen el mastil de la guitarra:

TRASTES: En el mástil se encuentran los trastes, que son las divisiones en que se divide.
CUERDAS: La guitarra tiene 6 cuerdas de distinto grosor, la más fina que esta abajo, es la denominada 1ª cuerda, la siguiente es la 2ª, y así hasta la 6ª que es la más gruesa.


Mastil de la guitarra

______

Mi 1ra. ||---------|----------|----------|----------|---------|-
Si 2da. ||---------|----------|----------|----------|---------|-
Sol 3ra.||---------|----------|----------|----------|---------|-
Re 4ta. ||---------|----------|----------|----------|---------|-
La 5ta. ||---------|----------|----------|----------|---------|-
Mi 6ta. ||---------|----------|----------|----------|---------|-
......___/1 Traste . 2 Traste . 3 Traste . 4 Traste . 5 Traste


La tablatura se compone de seis líneas horizontales que representan las seis cuerdas de la guitarra, la línea de arriba es la 1ª cuerda y la última línea es la 6ª:

e------------------------------primera cuerda
B-----------------------------segunda cuerda
G-----------------------------tercera cuerda
D-----------------------------cuarta cuerda
A-----------------------------quinta cuerda
E-----------------------------sexta cuerda


En estas líneas estaran unos números que muestran el traste que se tiene que pulsar:

e----1-------------------------
B------------------------------
G-------3----------------------
D----------5-------------------
A------------------------------
E------------------------------


Esto quiere decir que debes comenzar el punteo de guitarra pulsando la cuerda primera(e) en el traste 1, después sigue la cuerda tercera(G) en el traste 3, después sigues la cuerda cuarta(D) en el traste 5.
Si encuentras un 0 en la tablatura te esta indicando que la cuerda hay que tocarla sin pulsarla.

Cuando en la tablatura hay unos números sobre otros, los tienes que tocar al mismo tiempo y cada uno en su traste. Esto se llamaria acorde y se define como: dos o más notas sonando al mismo tiempo.


e--2---------------------------primera cuerda
B--3---------------------------segunda cuerda
G------------------------------tercera cuerda
D------------------------------cuarta cuerda
A------------------------------quinta cuerda
E------------------------------sexta cuerda


En la tablatura de arriba hay dos notas una encima de otra, sin dejar espacio. Esto indica que hay que tocarlas a la vez. La primera cuerda de la guitarra pisada en el traste 2 y la segunda cuerda pisada en el traste 3, presionas las dos cuerdas a la vez en sus trastes correspondientes y las tocas al mismo tiempo.

SIMBOLOS Y SIGNOS EN LAS TABLATURAS DE GUITARRA

A continuación os mostramos los simbolos y signos de las diferentes tecnicas que mas frecuentemente aparecen en las tablaturas para guitarra. En algunos tabs puede que estos simbolos y signos no signifiquen lo mismo, pero normalmente en estos casos se indicara en la tablatura de que tecnica de guitarra se trata.


Estos simbolos suelen estar escritos en inglés:

) = Bend

/ = Slide

~~ = Vibrato

h = Hammer on

p = Pulloff

PM = Palm mute

xx = Pick scrape (rasgar con la pua)

NH = Armonico natural (Natural armonic)

+ = Tremelo Pick

) = Unison Bend

| = Ghost Bend (Bend fantasma)

| = Ghost Bend and release (Bend fantasma y soltar)

* = Retroalimentacion descontrolada (Uncontrolled feedback)

A continuacion os explicamos que hay que hacer en algunas de las tecnicas mas comunes y si os interesa profundizar, en nuestro tutorial sobre tecnicas para guitarra electrica podreis ver videos explicativos de como ejecutar alguna de ellas:


BEND:
Se toca la primera nota y luego se estira la cuerda de la guitarra con el dedo que presiona el mástil hasta alcanzar un medio tono, tono completo o segun se indique.

E-|------------------|
B-|----5)------------|
G-|------------------|
D-|------------------|
A-|------------------|
E-|------------------|


HARMONICO NATURAL:
Se toca la cuerda ligeramente sin llegar a presionar con la mano que toca el mástil en el traste que se indique y despues pulsa en el trate la nota.

HARMONICO ARTIFICIAL (PINCH):
Despues de que la nota es tocada normalmente, se toca ligeramente con la punta de el dedo de la mano que hace el pick , sin llegar a apagar el sonido de la nota (una octava más arriba de la nota tocada originalmente) para producir el sonido de un harmónico. (pinch) A.H.


E-|----9-------------|
B-|------------------|
G-|------------------|
D-|------------------|
A-|------------------|
E-|------------------|


PALM MUTE:
La nota es ligeramente apagada con el filo de la mano que hace el pick mientras esta esta tocando las notas.


E-|------------------|
B-|------------------|
G-|------------------|
D-|------------------|
A-|------------------|
E-|--0--0--0--0-----|


SLIDE:
Se toca la nota primera nota y se corre el dedo hasta un trasto más arriba o más abajo segun sea el caso.La segunda nota no es tocada con la mano que hace el pick.


E-|------------------|
B-|----5/8-----------|
G-|------------------|
D-|------------------|
A-|------------------|
E-|------------------|



SLIDE PICK:
Es lo mismo que el slide solo que la segunda nota si es tocada.

E-|------------------|
B-|----5/8-----------|
G-|------------------|
D-|------------------|
A-|------------------|
E-|------------------|


SLIDE LARGO:
Se hace el pick durante el slide hasta alcanzar la nota deseada


E-|------------------|
B-|----/5------------|
G-|------------------|
D-|------------------|
A-|------------------|
E-|------------------|


SLIDE OFF:
Es el slide largo solo que hacia abajo.


E-|------------------|
B-|----5/----5------|
G-|------------------|
D-|------------------|
A-|------------------|
E-|------------------|


PICK SLIDE:
Con el filo de el pick (pua) se presiona sobre los trastos y se hace el slide.


E-|------------------|
B-|----x------------|
G-|------------------|
D-|------------------|
A-|------------------|
E-|------------------|


HAMMER-ON:
Se toca la primera nota y la segunda se hace sonar por medio de un tap (presionar el trasto de la guitarra y lograr un sonido sin necesidad de hacer un punteo) la segunda nota.


E-|------------------|
B-|----5h7----------|
G-|------------------|
D-|------------------|
A-|------------------|
E-|------------------|


PULL-OFF:
Se colocan los dos dedos en las notas que se van a tocar, se toca la primera nota y se deja de presionar esta para dejar sonar la nota de más abajo. La segunda nota no es tocada con la mano que hace el pick (punteo).


E-|------------------|
B-|----7p5-----------|
G-|------------------|
D-|------------------|
A-|------------------|
E-|------------------|


TREMOLO PICKING:
La nota es tocada con la mano que hace el pick hacia arriba y hacia abajo lo más rápido que sea posible.


E-|------------------|
B-|----5-------------|
G-|----/-------------|
D-|----/-------------|
A-|----/-------------|
E-|------------------|


VIBRATO:
Se toca la nota y se hace vibrar con el vibrato o palanca de la guitarra, o bien haciendo un bend lo más rápido posible hacia arriba y hacia abajo.


E-|------------------|
B-|----5~-----------|
G-|------------------|
D-|------------------|
A-|------------------|
E-|------------------ |



COMO AFINAR UNA GUITARRA


Método tradicional de afinar una guitarra
En caso de no tener afinador, ni ningun programa que te ayude, tendras que afinar de oido (lo que deberia saber hacer todo buen guitarrista). En el siguiente video se explica como conseguirlo:


link: http://www.youtube.com/watch?v=q2K2MGflWEE&hl


Este método básico de afinar la guitarra consiste en afinar basandose en el sonido de la cuerda anterior:

- La 6ª cuerda tocada en el 5º traste dará el mismo sonido que la 5ª cuerda al aire.
- La 5ª cuerda tocada en el 5º traste dará el mismo sonido que la 4ª cuerdaal aire.
- La 4ª cuerda tocada en el 5º traste dará el mismo sonido que la 3ª cuerda al aire.
- La 3ª cuerda tocada en el 4º traste dará el mismo sonido que la 2ª cuerda al aire.
- La 2ª cuerda tocada en el 5º traste dará el mismo sonido que la 1ª cuerda al aire.
- La 1ª cuerda tocada al aire dará el mismo sonido que la 6ª cuerda al aire (octava)

ESCALAS DE GUITARRA

La definición mas usada al referirse a una escala musical es "sucesión de sonidos constitutivos de un sistema (tonalidad) que se suceden regularmente en sentido ascendente o descendente, y todos ellos con relación a un solo tono que da nombre a toda la escala".

Esto quiere decir que cuando tocamos una melodía, formada por una serie de notas, ésta tendrá un determinado tono que depende directamente de las notas que la compongan. Al conjunto de todas las posibles notas de esa tonalidad es a lo que se le llama escala.



Algunos tipos de escalas de guitarra

ESCALA CROMATICA: Esta escala es las más importantes de todas las escalas ya que esta formada por todas las notas posibles. El resto de las escalas son subsidiarias de la escala cromática. La diferencia entre unas escalas y otras radica en los intervalos entre sus notas.

ESCALA MAYOR: La escala mayor tiene 7 notas. Todas están separadas por un tono con excepción de los grados III-IV y VII-I. Sabiendo que ni el MI y el SI tienen sostenidos. Como ejemplo, la escala de DO mayor estaría formada por las siguientes notas: DO - RE - MI - FA - SOL - LA - SI

ESCALA MENOR: Al igual que la escala mayor, la escala menor también tiene 7 notas. De la escala menor existen 3clases diferentes: menor natural, menor armónica y menor melódica. La diferencia entre estos 3 tipos de escala es la alteración en las notas VI y VII.

ESCALAS PENTATONICAS: Las escalas pentatónicas son las escalas formadas por cinco notas. Son las mas fáciles de tocar y son muy utilizadas en el rock y el blues.

Aprender tocar escalas de guitarra

Para aprender a tocar escalas de guitarra, es muy importante mantener relajada la mano que esta en el traste, mientras intentamos pulsar la cueerda perpendicularmente con los dedos. Para aprender tocando con escalas hay que tener paciencia y empezar poco a poco. Con la práctica, llegara el momento en que las tocaremos de forma natural y los propios dedos las tocaran sin necesidad de pensar demasiado. Recuerda que una escala bien aprendida es la base para realizar un solo de guitarra o para poder improvisar.

Para practicar con las escalas de guitarra lo mejor es empezar por las escalas pentatónicas, ya que son las más fáciles de aprender y las que dan mejor juego con un instrumento como la guitarra. Además es la escala mas utilizada en la música rock en general.

Recuerda que cualquier escala puede ser tocada en diferentes tonalidades. Una vez sepas como se hace la escala, se puede tocar en cualquier parte del mástil. Con la práctica se va adquiriendo un poco de oído y llega el momento en que de forma natural los mismos dedos enlazan instintivamente diferentes escalas.

En la siguiente página hay una fantástica utilidad donde se muestran distintos ejemplos de escalas:



En ella podrás elegir entre los distintos tipos de escalas y sus diferentes tonalidades. Una vez elegidos y pulsando GO y PLAY, se muestra de forma muy clara donde poner los dedos en los trates y que cuerda pulsar para tocar las diferentes escalas que existen. De esta forma te sera facil poder practicar con los diferentes tipos de escalas.

---------------------------------------------------------------------------------------------------------------------------------------------------------------------

Otros post que te van a interesar:
Metallica desde 1981 hasta 2009 en imagenes :
http://www.taringa.net/posts/imagenes/9237000/Metallica-desde-1981-hasta-2009-en-imagenes.html Discografia de Metallica:
http://www.taringa.net/posts/info/8676156/Discografia-de-Metallica-_-descargas-_-videos-_-info.html

---------------------------------------------------------------------------------------------------------------------------------------------------------------------


UNETE A LA COMUNIDAD DE MUSICOS TARINGA!
Link a la comu : http://www.taringa.net/comunidades/musicos-taringa/