Ahora les voy a enseñar a tocar canciones muy buenas y faciles para tocar en guitarra!
sin saber nada de musica...


Primero te esnseño a leer tablaturas


La tablatura es una representación del brazo de la guitarra por medio de seis lineas dispuestas de manera horizontal representando las cuerdas de la guitarra.
A la izquierda, al principio de cada linea horizontal se colocan letras en cifrado americano que dicen las notas de cada cuerda. La cuerda mas aguda estara representada arriba de todo, es decir es la primera linea que se dibuja, en ocasiones la primera cuerda se dibuja con una "e" minúscula al lado.


e|-------------------------------------------------------------|
B|-------------------------------------------------------------|
G|-------------------------------------------------------------|
D|-------------------------------------------------------------|
A|-------------------------------------------------------------|
E|-------------------------------------------------------------|


la tablatura indica que nota se debe tocar en el lugar exacto (esta es la gran diferencia que existe con respecto a la partitura en donde uno debe deducir que digitación usar).Los numeros representaran el traste en el que esta ubicada la nota, en el caso de que diga 0 se tomará como una cuerda al aire.

Una tablatura puede verse mas o menos asi: -Las que les doy no son tan complicadas es un Ejemplp :


E----5----7--------------------------3-----7------------------
B----5----8---------------0-1------1-1-----5--------8--7-5-7--
G----5----7-------------2-----2----------5--------------------
D----7----9----7-9----2---------------------------------------
A----7----10--------0-----------0-----------------------------
E----5----7-----------------------------------8-7-------------


Al principio puede resultar bastante complicado pero la tablatura requiere mucha menos dedicación que la partitura. Observa que cuando hay varios numeros uno encima de otro (como en el ejemplo) indicara que deben tocarse al mismo tiempo, representando un acorde. El TAB debe leerse al igual que cualquier texto, de izquierda a derecha.


Canciones


Smoke on the water


|-0-3-5---0-3-6-5---0-3-5-3-0--------


SATISFACTION


e-------------------------------------------------
B-------------------------------------------------
G-------------------------------------------------
D-------------------------------------------------
A-------------------------------------------------
E---2--2---2-4-5--555-4444------------------------


Sweet Child O' Mine ( un poco dificil )


E|---------3--2------------3--2-------------------|
B|---3----------3----3----------3-----------------|
G|-----3-2--3----------3-2--3-------------------|
D|-0--------------0---------------0---------------|
A|--------------------------------------------------|
E|--------------------------------------------------|


BACK IN BLACK


B--------------------------------------3-0-----------------
G----------------------------------------------3-0-------
D-------------5--5--5-----------------------------------2^3R2p0-
A-----5------3--3--3--------7-7-7-------------------------
E-----3-----------------------5-5-5-------------------------


B-------------------------------------
G---------------------------------------
D-------------5--5--5--------------------
A-----5------3--3--3--------7-7-7-----
E-----3-----------------------5-5-5----7-4-7-5-7-6-7-7-------


ONE (intro)


e|---------------------------------------------------------------------------|
b|---------------------------------------------------------------------------|
g|------------------------------------------------------------------------0--|
D|----4-----0--(0)------4-----0--(0)-------4-----0--(0)------4-----0--(0)----|
A|-2-----2------------------------------2-----2------------------------------|
E|-------------------3-----3------------------------------3-----3------------|

e|--------------------------------------------------------------------|
b|--------------------------------------------------------------------|
g|--------------------------------------------------------------------|
D|----4------0--(0)------4-----0--(0)------4-----0--(0)---------------|
A|-2-----2------------0-----0--------------------------------2-----2--|
E|--------------------------------------3-----3-----------0-----2-----|


BY THE WAY Red Hot Chili Pepers


----x8-----x8-----x16
e-------|------|-----|
B-------|------|-----|
G-------|------|-----|
D--10---|--10--|-----|
A---8---|---7--|--7--|
E-------|------|--5--|

----x8-----x8-----x12
e-------|------|-----|--------------|
B-------|------|-----|--------------|
G-------|---9--|-----|--9-9---------|
D--10---|--10--|-----|-------10-10--|
A---8---|--10--|--7--|--------------|
E-------|------|--5--|--------------|
'Standin' in line...'

----x8-----x8-----x16
e-------|------|-----|
B-------|------|-----|
G-------|------|-----|
D--10---|--10--|-----|
A---8---|---7--|--7--|
E-------|------|--5--|

----x8-----x8-----x16
e-------|------|------|
B-------|------|---*--|
G-------|---9--|---9--|
D--10---|--10--|--10--|
A---8---|--10--|---7--|
E-------|------|------|


[EL VIEJO DE ARRIBA Bersuit /i]


e|------------------------------------------------------------------------------------|
b|------------------------------------------------------------------------------------|
g|------------------------------------------------------------------------------------|
d|------------------9-9----------9--11-11--9---------12-12-11-11--9---------- 9-------|
a|--9-9--11--12--9--------11-12----------------12-12----------------12----12------12--|
E|------------------------------------------------------------------------------------|

e|----------------|----------------------------------------------------|
b|----------------|----------------------------------------------------|
g|----------------|----------------------------------------------------|
d|-------------11-|-----------------9-9----------9--11-11--9-----------|
a|--11--9--8------|-9-9--11--12--9--------11-12----------------12------|
E|----------------|----------------------------------------------------|

e|--------------------------------------|
b|--14-14-14-14-14-12-10-12-10--9-10----|
g|--14-14-14-14-14-13-11-13-11-10-11----|
d|--------------------------------------|
a|--------------------------------------|
E|--------------------------------------|


Higway To Hell


D#||--------------|-----------------------|-----------------------|
A#||--------------|--------------3--3--3--|--------------3--3--3--|
F#||-----2--2--2--|--------------2--2--0--|--------------2--2--0--|
C#||-----2--2--2--|--------------0--0--0--|--------------0--0--0--|
G#||-----0--0--0--|-----------------------|-----------------------|
D#||--------------|-----------------------|-----------------------|


--------------------------|------------------------|| X6
-----3--3--3-----3--------|------------------------||
-----2--2--0-----2-----2--|--2---------------------||
-----0--0--0-----0-----2--|--2---------------------||
-----------------------0--|--0---------------------||
--------------------------|------------------------||

Despues repetis esto una vez mas y lo terminas con un...

( esta es la parte que dice... Haaayguay to jeeeel! )

-------------------------|--------------------------|------------------2--|
-------------------------|--------------------------|--2---------------3--|
-------------------------|--------------------------|--2------------0--2--|
--2----2--2--2--2--2--2--|--2--2--2--2--2--2--2--2--|--2------------0--0--|
--2----2--2--2--2--2--2--|--2--2--2--2--2--2--2--2--|--0------------------|
--0----0--0--0--0--0--0--|--0--0--0--0--0--0--0--0--|---------------------|


--(2)--(2)--(2)-----3----2----|------------------2--|
--(3)--(3)--(3)-----3----3----|--2---------------3--|
--(2)--(2)--(2)-----0----2----|--2------------0--2--|
--(0)--(0)--(0)-----0----0----|--2------------0--0--|
------------------------------|--0------------------|
------------------------------|---------------------|


Blitzkrieg Bop ( RAMONES )


1|---------------------------------------------------------|
2|---------------------------------------------------------|
3|-------------7--7/9--9-9---------------------------------|x3
4|--7--7-7-7-7-7--7/9--9-9---------------------------------|
5|--7--7-7-7-7-5--5/7--7-7---------------------------------|
6|--5--5-5-5-5---------------------------------------------|



1|---------------------------------------------------------|
2|---------------------------------------------------------|
3|----------7-7--------------------------------------------|
4|--7-7-7-7-7-7-7-7-7-7------------------------------------|
5|--7-7-7-7-5-5-7-7-7-7------------------------------------|
6|--5-5-5-5-----5-5-5-5------------------------------------|


T.N.T ( ac/dc )


INTRO
E-|---|----|-----------------------|-----------------
B-|---|----|-----------------------|-----------------
G-|---|----|-----------------------|-----------------
D-|-2-|----|-2---------------------|-----------------
A-|-2-|----|-2-----5--5------------|-----------------
E-|-0-|----|-0-----3--7---3--5--3--|-----------------

VERSO (igual que la intro)
E--|------------------------|------------------------
B--|------------------------|------------------------
G--|------------------------|------------------------
D--|--2---------------------|------------------------
A--|--2-----5--5------------|------------------------
E--|--0-----3--7---3--5--3--|------------------------

Coro
E--|----------|--------------------------------------
B--|----------|--------------------------------------
G--|----------|--------------------------------------
D--|--------2-|--------------------------------------
A--|--7--5--2-|--5---7-------------------------------
E--|--5--3--O-|--3---5-------------------------------


canciones para tocar con la guitarra