Toca la guitarra con estas canciones!

Hola! Bueno, este es mi primer post, sepan entender si algo no está bien... . Como dice el título, con este post vas a poder aprender y tocar canciones para Guitarra muy facilmente!.

Primero que nada...

Las Tablaturas

La tablatura es una representación del brazo de la guitarra por medio de seis lineas dispuestas de manera horizontal representando las cuerdas de la guitarra.
A la izquierda, al principio de cada linea horizontal se colocan letras en cifrado americano que dicen las notas de cada cuerda. La cuerda mas aguda estara representada arriba de todo, es decir es la primera linea que se dibuja, en ocasiones la primera cuerda se dibuja con una "e" minúscula al lado.


e|-------------------------------------------------------------|
B|-------------------------------------------------------------|
G|-------------------------------------------------------------|
D|-------------------------------------------------------------|
A|-------------------------------------------------------------|
E|-------------------------------------------------------------|


Basicamente, la tablatura indica que nota se debe tocar en el lugar exacto (esta es la gran diferencia que existe con respecto a la partitura en donde uno debe deducir que digitación usar).Los numeros representaran el traste en el que esta ubicada la nota, en el caso de que diga 0 se tomará como una cuerda al aire.

Una tablatura puede verse mas o menos asi: -Las que les doy no son tan complicadas es un Ejemplo -


E----5----7--------------------------3-----7------------------
B----5----8---------------0-1------1-1-----5--------8--7-5-7--
G----5----7-------------2-----2----------5--------------------
D----7----9----7-9----2---------------------------------------
A----7----10--------0-----------0-----------------------------
E----5----7-----------------------------------8-7-------------


Al principio puede resultar bastante complicado pero la tablatura requiere mucha menos dedicación que la partitura. Observa que cuando hay varios numeros uno encima de otro (como en el ejemplo) indicara que deben tocarse al mismo tiempo, representando un acorde. El TAB debe leerse al igual que cualquier texto, de izquierda a derecha.

Si ya practicaste un poco, intenta con estas canciones!

Tablaturas

IRON MAN - Black Sabbath





G---------------------------------
D---------------------------------
A-2-5--5-7-7--109-109-109-5-5-7-7-
E--------------------------------- (x7)

G---------------------------------
D---------------------------------
A-----5---------------------------
E-7-7---7-7-6-555-04567----------- (x3)

G---------------------------------
D---------------------------------
A-2-5--5-7-7--109-109-109-5-5-7-7-
E--------------------------------- (x4)

G---------------------------------------
D-------------------789------------789--
A-7---5-----567-789--------567-789------
E--------77-------------77-------------- (x2)

guitarra

FLACA - Andrés Calamaro (intro)





e------------------------------------------------------------------
B--3-----------4------------5-----------3-1---3-----------4--------
G---4-2-0-2-4----4-2-0-2-4----4-2-0-2-4-----4---4-2-0-2-4---4-2-0--
D------------------------------------------------------------------
A------------------------------------------------------------------
E------------------------------------------------------------------

aprende

SUNSHINE OF YOUR LOVE - Cream





e-------------------------------------------------
B-------------------------------------------------
G-------------------------------------------------
D------12--12---10---12---------------------------
A------------------------12--11--10------b8-------
E------------------------------------10------10---
2:
e-------------------------------------------------
B-------------------------------------------------
G------12--12---10---12---------------------------
D------------------------12--11--10------b8-------
A------------------------------------10------10---
E-------------------------------------------------

Megadeth

EL PAYASO PLIN PLIN/FELIZ CUMPLEAÑOS - Es el mismo ritmo





e----------1-0---------3-1-----8-5-1-1--0---6-6-5-1-3--1-
B-1-1-3--1-----1-1-3-1-----1-1------------3--------------

facil

INSPECTOR GADGET





1|------------------------------------------
2|---------------------------------------3-2
3|----------------------------------4-3-----
4|------0-2-4--0-3---2-0------0-2-4---------
5|--2-4------------4-----2-4----------------
6|------------------------------------------

Metallica

SMOKE ON THE WATER - Deep Purple





La Pueden hacer con cualquier cuerda siguiendo este parton:

|-0-3-5---0-3-6-5---0-3-5-3-0--------

Suena muy Bien usando las cuerdas Nº 3 y 4 juntas!

Como

SATISFACTION - Rolling Stones





e-------------------------------------------------
B-------------------------------------------------
G-------------------------------------------------
D-------------------------------------------------
A-------------------------------------------------
E---2--2---2-4-5--555-4444------------------------

y asi se repite... (sirve cn cualquier cuerda)

canciones

ARROZ CON LECHE





e||---------0-------|----------0----|-0--1--0--------------|
B||------1-----1--1-|----1--1-----3-|----------3--1--0--0--|
G||·--0-------------|-0-------------|----------------------|
D||·----------------|---------------|----------------------|
A||-----------------|---------------|----------------------|
E||-----------------|---------------|----------------------|

e||---------------|--------0-----|--------0-----|
B||---------0--1--|-----1-----1--|-----1-----3--|
G||---0--2--------|--0-----------|--0-----------|
D||---------------|--------------|--------------|
A||---------------|--------------|--------------|
E||---------------|--------------|--------------|

e||---0--1--0--------------|-------------------||
B||------------3--1--0--0--|--------0--1-------||
G||------------------------|--0--2------------·||
D||------------------------|------------------·||
A||------------------------|-------------------||
E||------------------------|-------------------||

tocar

HIGHWAY TO HELL - AC/DC





D#||--------------|-----------------------|-----------------------|
A#||--------------|--------------3--3--3--|--------------3--3--3--|
F#||-----2--2--2--|--------------2--2--0--|--------------2--2--0--|
C#||-----2--2--2--|--------------0--0--0--|--------------0--0--0--|
G#||-----0--0--0--|-----------------------|-----------------------|
D#||--------------|-----------------------|-----------------------|


--------------------------|------------------------|| X6
-----3--3--3-----3--------|------------------------||
-----2--2--0-----2-----2--|--2---------------------||
-----0--0--0-----0-----2--|--2---------------------||
-----------------------0--|--0---------------------||
--------------------------|------------------------||

Despues repetis esto una vez mas y lo terminas con un...

( esta es la parte que dice... Haaayguay to jeeeel! )

-------------------------|--------------------------|------------------2--|
-------------------------|--------------------------|--2---------------3--|
-------------------------|--------------------------|--2------------0--2--|
--2----2--2--2--2--2--2--|--2--2--2--2--2--2--2--2--|--2------------0--0--|
--2----2--2--2--2--2--2--|--2--2--2--2--2--2--2--2--|--0------------------|
--0----0--0--0--0--0--0--|--0--0--0--0--0--0--0--0--|---------------------|


--(2)--(2)--(2)-----3----2----|------------------2--|
--(3)--(3)--(3)-----3----3----|--2---------------3--|
--(2)--(2)--(2)-----0----2----|--2------------0--2--|
--(0)--(0)--(0)-----0----0----|--2------------0--0--|
------------------------------|--0------------------|
------------------------------|---------------------|

tutorial

LA CUCARACHA





e--------1-5--------1-5--1-1-0-0-----------------------
B--1-1-1------1-1-1--------------3-3-1-----------------
G------------------------------------------------------
D------------------------------------------------------
A------------------------------------------------------
E------------------------------------------------------


e--------0-3--------0-3--8-10-8-6-5-3-1----------------
B--1-1-1------1-1-1------------------------------------
G------------------------------------------------------
D------------------------------------------------------
A------------------------------------------------------
E------------------------------------------------------


e------1-1-5-5-8-5--8-10-8-6-5-8-6-3-------------------
B--1-1-------------------------------------------------
G------------------------------------------------------
D------------------------------------------------------
A------------------------------------------------------
E------------------------------------------------------


e------0-0-3-3-6-3--8-10-8-6-5-3-1---------------------
B--1-1-------------------------------------------------
G------------------------------------------------------
D------------------------------------------------------
A------------------------------------------------------
E------------------------------------------------------

videos

T.N.T. - AC/DC





INTRO

E-|---|----|-----------------------|-----------------
B-|---|----|-----------------------|-----------------
G-|---|----|-----------------------|-----------------
D-|-2-|----|-2---------------------|-----------------
A-|-2-|----|-2-----5--5------------|-----------------
E-|-0-|----|-0-----3--7---3--5--3--|-----------------

VERSO (igual que la intro)
E--|------------------------|------------------------
B--|------------------------|------------------------
G--|------------------------|------------------------
D--|--2---------------------|------------------------
A--|--2-----5--5------------|------------------------
E--|--0-----3--7---3--5--3--|------------------------

Coro
E--|----------|--------------------------------------
B--|----------|--------------------------------------
G--|----------|--------------------------------------
D--|--------2-|--------------------------------------
A--|--7--5--2-|--5---7-------------------------------
E--|--5--3--O-|--3---5-------------------------------

a

HIMNO DE LA ALEGRÍA - Beethoven





||-0--0--1--3-|-3--1--0----|----------0-|-0----------||
||------------|----------3-|-1--1--3----|------3-----||
||------------|------------|------------|------------||
||------------|------------|------------|------------||
||------------|------------|------------|------------||
||------------|------------|------------|------------||


||-0--0--1--3-|-3--1--0----|----------0-|------------||
||------------|----------3-|-1--1--3----|-3----1-----||
||------------|------------|------------|------------||
||------------|------------|------------|------------||
||------------|------------|------------|------------||
||------------|------------|------------|------------||


||-----0—-----|-0-1--0-----|-0-1—0------|------------||
||-3-----1--3-|--------1--3|---------3--|1—3---------||
||------------|------------|------------|---------0--||
||------------|------------|------------|------------||
||------------|------------|------------|------------||
||------------|------------|------------|------------||


||-0—-0—-1—-3-|-3--1--0----|----------0-|------------||
||------------|----------3-|-1--1--3----|-3---1------||
||------------|------------|------------|------------||
||------------|------------|------------|------------||
||------------|------------|------------|------------||
||------------|------------|------------|------------||

Toca la guitarra con estas canciones!

YOU REALLY GOT ME - Cover de Van Halen





D#||-------------------|-------------------------|-------------------------|
A#||-------------------|------------------x-x----|------------------x-x----|
F#||-------------------|--2--2-----2------x-x----|--2--2-----2------x-x----|
C#||-------------------|--2--2-----2------x-x----|--2--2-----2------x-x----|
G#||-------------------|--0--0-----0------x-x----|--0--0-----0------x-x----|
D#||----------------3--|--------3-------------3--|--------3-------------3--|

-------------------------|------------------------|--------------------------|
------------------x-x----|------------------------|--------------------------|
--2--2-----2------x-x----|--2--2-----2----2/------|--2--2-----2--x--x--x-----|
--2--2-----2------x-x----|--2--2-----2----2/------|--2--2-----2--x--x--x-----|
--0--0-----0------x-x----|--0--0-----0------------|--0--0-----0--------------|
--------3-------------3--|--------3------------3--|--------3--------------3--|

--------------------------|--------------------------|------------------------|
--------------------------|--------------------------|------------------------|
--2--2-----2--x--x--x-----|--2--2-----2--x--x--x-----|--2--2------------------|
--2--2-----2--x--x--x-----|--2--2-----2--x--x--x-----|--2--2------------------|
--0--0-----0--------------|--0--0-----0--------------|--0--0------------------|
--------3--------------3--|--------3--------------3--|--------3b-3~----15/----|

Tablaturas

SYMPHONY OF DESTRUCTION - Megadeth





(parte del verso)

e------------------------------------------------------------
b-----------------------------------------------------------
g-----------------------------------------------------------
d-----------------------------------------------------------
a-----------------3--2---2----3--2--2--------------3---2--2--
E-1----3----1-----1--0---0----1--0--0----1--3--1---1---0--0--

guitarra

PARANOID - Black Sabbath





intro creo q va 3 veces no me acuerdo
e------------------------------------------------------------
b------------------------------------------------------------
g------------------------7-9-----7---------------------------
d----7/9--7/9--7/9---7-9-----7-9---9-------------------------
a------------------------------------------------------------
E-----------------------------------------------------------

después

e--------------------------------------------------------------
b--------------------------------------------------------------
g----9-9-9-9-9-9-9-9-9-9-9-9-9-9-9-9--7-7-7-7-7-7-7-7--9--7--9-
d----7-7-7-7-7-7-7-7-7-7-7-7-7-7-7-7--5-5-5-5-5-5-5-5--7--5--7-
a--------------------------------------------------------------
E--------------------------------------------------------------

aprende

CRAZY TRAIN - Ozzy Osbourne





--------------------------------------|
--------------------------------------|
--------------------------------------|
--------------------------------------|
------4---5---4------2-0---0-2--------|
--2-2---2---2---2--------4-----4-2-0--|

Megadeth

BACK IN BLACK - AC/DC





B--------------------------------------3-0-----------------
G----------------------------------------------3-0-------
D-------------5--5--5-----------------------------------2^3R2p0-
A-----5------3--3--3--------7-7-7-------------------------
E-----3-----------------------5-5-5-------------------------

B-------------------------------------
G---------------------------------------
D-------------5--5--5--------------------
A-----5------3--3--3--------7-7-7-----
E-----3-----------------------5-5-5----7-4-7-5-7-6-7-7-------

facil

ONE (intro) - Metallica





e|---------------------------------------------------------------------------|
b|---------------------------------------------------------------------------|
g|------------------------------------------------------------------------0--|
D|----4-----0--(0)------4-----0--(0)-------4-----0--(0)------4-----0--(0)----|
A|-2-----2------------------------------2-----2------------------------------|
E|-------------------3-----3------------------------------3-----3------------|


e|--------------------------------------------------------------------|
b|--------------------------------------------------------------------|
g|--------------------------------------------------------------------|
D|----4------0--(0)------4-----0--(0)------4-----0--(0)---------------|
A|-2-----2------------0-----0--------------------------------2-----2--|
E|--------------------------------------3-----3-----------0-----2-----|

Metallica

EL VIEJO - La Vela Puerca

Es la parte de la trompeta, pero nosotros la vamos a tocar con la guitarra





e/------------------------------------
B/--------------------------------------
G/--9—-6-8-9—-6-8-6---------------------
D/-------------------9-7-6----6---------
A/-------------------------7----9-7--6--
E/--------------------------------------

e/-------------------------------
B/-------------------------------
G/--9—-6-8-9—-6-8-6--------------
D/-------------------9-7-6----6----
A/-------------------------7----9--
E/-------------------------------

e/--------------------------------------
B/--------------------------------------
G/--9—-6-8-9—-6-8-6---------------------
D/-------------------9-7-6----6---------
A/-------------------------7----9-7--6--
E/--------------------------------------

e/---------------------------------
B/---------------------------------
G/--9—-6-8-9—-6-8-6----------------
D/-------------------9-7-6----6----
A/-------------------------7----9--
E/---------------------------------

Como

TU CARCEL - Enanitos Verdes





e –-0/2--2--0-----------0--2--2-----0---0-------------------0--0--
B -------------3----3--3---------3---------3--2----2--2--3--------
G ----------------------------------------------------------------
D ----------------------------------------------------------------
A ----------------------------------------------------------------
E ----------------------------------------------------------------

e --------------------------------------------------
B --2--3----3--2--0----0--0--0--0—-2-—3-—2—-3h5—-5--
G --------------------------------------------------
D --------------------------------------------------
A --------------------------------------------------
E --------------------------------------------------

e –-0/2--2--0-----------0--2--2-----0---0-------------------0--0--
B -------------3----3--3---------3---------3--2----2--2--3--------
G ----------------------------------------------------------------
D ----------------------------------------------------------------
A ----------------------------------------------------------------
E ----------------------------------------------------------------

e --------------------------------------------------
B --2--3----3--2--0----0--0--0--0—-2-—3-—2—-3h5—-5--
G --------------------------------------------------
D --------------------------------------------------
A --------------------------------------------------
E --------------------------------------------------

canciones

Bueno, esas son todas! espero que las puedan poner en práctica!. Como dije antes, es mi primer post, así que sepan entender si algo está mal

A ROCKEAR

tocar