link: http://www.youtube.com/watch?v=g9qA5-HQmzk
bueno vamos con la primera cancion
FLACA de Andres Calamaro (intro)
e------------------------------------------------------------------
B--3-----------4------------5-----------3-1---3-----------4--------
G---4-2-0-2-4----4-2-0-2-4----4-2-0-2-4-----4---4-2-0-2-4---4-2-0--
D------------------------------------------------------------------
A------------------------------------------------------------------
E------------------------------------------------------------------:

la siguiente cancion es :
Guns N' Roses - Sweet Child O' Mine
E|---------3--2------------3--2-------------------|
B|---3----------3----3----------3-----------------|
G|-----3-2--3----------3-2--3-------------------|
D|-0--------------0---------------0---------------|
A|--------------------------------------------------|
E|--------------------------------------------------|


link: http://www.youtube.com/watch?v=zfLDGExTb8g

la otra :
HUMO SOBRE EL AGUA de Deep Purple re facil!

La Pueden hacer con cualquier cuerda siguiendo este parton:

|-0-3-5---0-3-6-5---0-3-5-3-0--------

Suena muy Bien usando las cuerdas Nº 3 y 4 juntas!


link: http://www.youtube.com/watch?v=znlXBXspPsE

la proxima :
SATISFACTION de los Rolling Stones


e-------------------------------------------------
B-------------------------------------------------
G-------------------------------------------------
D-------------------------------------------------
A-------------------------------------------------
E---2--2---2-4-5--555-4444------------------------

bueno eso fue todo espero que les guste y si les gusto algun puntito no esta de mas jeje

ahora algunas imagenes de guitarras:

muchas canciones para tocar con guitarra electrica

guitarra

facil