Buano este es mi primer post , espero que les guste
Aqui les dejo unas cuantas tablaturas muy faciles y buenas

Humo sobre el agua - Deep purple

|-0-3-5---0-6-5-3---0-3-5-3-0-| Se puede hacer en cualquier cuerda con este patron

Cumpleaños Feliz

e |-----------1-0-----------3-1-----7-5-1-1-0---6-6-5-1-3-1-|
B |-1-1-3-1-----1-1-3-1-----1-1--------------3-----------------|

Estrellita

e |-0-0-7-7-9-9-7-5-5-3-3-2-2-0---7-7-5-5-3-3-2---7-7-5-5-3-3-2---0-0-7-7-9-9-7-5-5-3-3-2-2-0-|

El himno de la alegria

e |-0-0-1-3-3-1-0----------0-0-----0-0-1-3-3-1----------0---------0-----0-1-0------------0-0-1-3-3-1-0-----------0-------|
B |-------------------3-1-1-3-----3------------------3-1-1-3--3-1---3--1-3--------3-1-3-----------------------3-1-1-3--3-1---|
G |-------------------------------------------------------------------------------------------------0----------------------------------------|

Todos Juntos - Los Jaivas

e |----------0---0-3-3------------------|
B |--0-3-1---1--------0-0-0-1--------| <- Todo eso x2
G |-2------------------------------2-2---|

e |-0-3-5-3-5-3-0-3-5-3-0-3------------------|
B |---------------------------------3-1-3-1--------| <- Todo eso x2
G |-------------------------------------------2-0-2-|

e |----------0---0-3-3------------------|
B |--0-3-1---1--------0-0-0-1--------| <- Todo eso x2
G |-2------------------------------2-2---|

e |-0-3-5-3-5-3-0-3-5-3-0-3------------------|
B |---------------------------------3-1-3-1--------| <- Todo eso x2
G |-------------------------------------------2-0-2-|


Aqui una pagina donde pueden encontrar mas tablaturas y acordes
www.tusacordes.com