tablaturas para guitarra principiante



son las canciones mas conosidas y faciles para guitarra algunas acustica , criolla o elektrica


si no sabes un carajo como se leen



EJ
Si yo les doy esto :

-----------------|---------------|----------------|---------------||
-----------------|---------------|----------------|---------------||
--0---3---5----0 |---3---6-5-----|-0---3---5----3-|---0----(0)---||
--0---3---5----0 |---3---6-5-----|-0---3---5----3-|---0----(0)---||
-----------------|---------------|----------------|---------------||
-----------------|---------------|----------------|---------------||

Seguramente no entiendan un carajo, les paso a explicar.


La tablatura se compone de seis líneas horizontales que representan las seis cuerdas de la guitarra, la línea de arriba es la 1ª cuerda y la última línea es la 6ª:

e ( Mi )-----------------------primera cuerda
B ( Si )-----------------------segunda cuerda
G (Sol)-----------------------tercera cuerda
D (Re)------------------------cuarta cuerda
A (La)------------------------quinta cuerda
E ( Mi )-----------------------sexta cuerda


En estas líneas estarán unos números que muestran el TRASTE que se tiene que pulsar:

e----1--------------------
B-------------------------
G-------3-----------------
D----------5--------------
A-------------------------
E-------------------------

Esto quiere decir que debes comenzar el punteo de guitarra pulsando la cuerda primera(e) en el traste 1, después sigue la tercer cuerda (G) en el traste 3, después sigues la cuerda cuarta(D) en el traste 5.
Si encuentras un 0 en la tablatura te esta indicando que la cuerda hay que tocarla sin pulsarla, osea al "aire".

Cuando en la tablatura hay unos números sobre otros, los tienes que tocar al mismo tiempo y cada uno en su traste. Esto se llamaria acorde y se define como: dos o más notas sonando al mismo tiempo.


e--2-----------------------primera cuerda
B--3-----------------------segunda cuerda
G--------------------------tercera cuerda
D--------------------------cuarta cuerda
A--------------------------quinta cuerda
E--------------------------sexta cuerda

En la tablatura de arriba hay dos notas una encima de otra, sin dejar espacio. Esto indica que hay que tocarlas a la vez. La primera cuerda de la guitarra pisada en el traste 2 y la segunda cuerda pisada en el traste 3, presionas las dos cuerdas a la vez en sus trastes correspondientes y las tocas al mismo tiempo.



PAGINA PERFECTA PARA SACAR LAS TABLATURAS : http://www.tusacordes.com/


TABLATURAS :
ONE PARTE RAPIDA NO INTRO
|--19-15-12--x4-------20-15-12--x4-----------|
|--------------------------------------------|
|--------------------------------------------|
|--------------------------------------------|
|--------------------------------------------|
|--------------------------------------------|


|--------------------------------------------|
|--19-15-12--x4-------20-15-12--x4-----------|
|--------------------------------------------|
|--------------------------------------------|
|--------------------------------------------|
|--------------------------------------------|


|--------------------------------------------|
|--17-13-10--x4-------18-13-10--x4-----------|
|--------------------------------------------|
|--------------------------------------------|
|--------------------------------------------|
|--------------------------------------------|



Intro: SMOKE ON THE WOTER (FACILISIMA) cualquier cuerda sirve
|----------------------------------|
|----------------------------------|
|----------------------------------|
|----------------------------------|
|----------------------------------|
|------0--------3-------5----------|



|----------------------------------|
|----------------------------------|
|----------------------------------|
|----------------------------------|
|----------------------------------|
|------0-------3-------6------5----|


|----------------------------------|
|----------------------------------|
|----------------------------------|
|----------------------------------|
|----------------------------------|
|-0------3------5------3--------0--|
ARROZ CON LECHE :
1ª|-------8------------8-----------9--9-----9---8--8--8--6---8--6
2ª|----9----9--9---9-9----11---11--9-----------------------------
3ª|--8-----------8-----------------------------------------------
4ª|--------------------------------------------------------------
5ª|--------------------------------------------------------------
6ª|--------------------------------------------------------------



CARNAVALITO

e|----5-5-5-5--7-8-7-5---------5-----------------------|
B|--5------------------8-8-8-8---8---------------------|
G|-----------------------------------------------------| X2
D|-----------------------------------------------------|
A|-----------------------------------------------------|
E|-----------------------------------------------------|



e|-----------------------------------------------------|
B|--5-5-5---8-5-5-5---8-5-5-5--------------------------|
G|--------7---------7---------7-5----------------------|
D|--------------------------------7--------------------|
A|-----------------------------------------------------|
E|-----------------------------------------------------|



e|-----------------------------------------------------|
B|--5-5-5---8-5-5-5---8-5-5-5--------------------------|
G|--------7---------7---------7-5---5---5--------------|
D|--------------------------------7---7---7-7-7--------|
A|-----------------------------------------------------|
E|-----------------------------------------------------|



e|--5-5-5-5--7-8-7-5---------5-------------------------|
B|--------------------8-8-8-8---8----------------------|
G|-----------------------------------------------------| X2
D|-----------------------------------------------------|
A|-----------------------------------------------------|
E|-----------------------------------------------------|



e|-----------------------------------------------------|
B|--5-5-5---8-5-5-5---8-5-5-5--------------------------|
G|--------7---------7---------7-5----------------------|
D|--------------------------------7--------------------|
A|-----------------------------------------------------|
E|-----------------------------------------------------|



e|-----------------------------------------------------|
B|--5-5-5---8-5-5-5---8-5-5-5--------------------------|
G|--------7---------7---------7-5---5---5--------------|
D|--------------------------------7---7---7-7-7--------|
A|-----------------------------------------------------|
E|-----------------------------------------------------|

FELIZ CUMPLEAÑOS O PAYASO PLIN PLIN ESLA MISMA
yo ni sabia

---------------------------------3-0----------1-1-0------------
----------1-0-----------3-1----------1-1-0----------1-3-1------
--0-0-2-0-------0-0-2-0------0-0-----------2-------------------
---------------------------------------------------------------
---------------------------------------------------------------
---------------------------------------------------------------



EL EXORCISTA
1[0-5-0-0-7-0-0-3-5-0-0-8-0-0-10-0]
2[--------------------------------]
3[--------------------------------]
4[--------------------------------]
5[--------------------------------]
6[--------------------------------]


1[-7-0-8-5-0-7-0-3-5-0-8-0-10]
2[---------------------------]
3[---------------------------]
4[---------------------------]
5[---------------------------]
6[---------------------------]



ESTRELLITA DONDE ESTAS , RE COPADA

e----------0-0-----------------------------------
B------3-3-----3---1-1---0-0---------------------
G--0-0-----------------------2-2--0--------------
D------------------------------------------------
A------------------------------------------------
E------------------------------------------------

e------------------------------------------------
B--3-3--1-1--0-0-----3-3--1-1--0-0---------------
G----------------2------------------2------------
D------------------------------------------------
A------------------------------------------------
E------------------------------------------------

e-----------0-0----------------------------------
B-------3-3-----3---1-1--0-0---------------------
G--0-0-----------------------2-2--0--------------
D------------------------------------------------
A------------------------------------------------
E------------------------------------------------


HIMNO A LA ALEGRIA , FACILISIMO Y RE COPADO xD
e|--7-7-8-10-10-8-7-5-3-3-5-7-7-5-5-|
B|----------------------------------|
G|----------------------------------|
D|----------------------------------|
A|----------------------------------|
E|----------------------------------|

PARTE 2

e|-7-7-8-10-10-8-7-5-3-3-5-7-5-3-3|
B|--------------------------------|
G|--------------------------------|
D|--------------------------------|
A|--------------------------------|
E|--------------------------------|

PARTE 3

e|--5-5-7-3-5-7-8-7-3-5-7-8-7-5-3-5--|
B|----------------------------------3|
G|-----------------------------------|
D|-----------------------------------|
A|-----------------------------------|
E|-----------------------------------|



PARTE 4

e|-7-7-8-10-10-8-7-5-3-3-5-7-5-3-3|
B|--------------------------------|
G|--------------------------------|
D|--------------------------------|
A|--------------------------------|
E|--------------------------------|




PANTERA ROSA NO ME GUSTO MUCHO XD


-]---------------------------------------------------------------------------------------------------------
-]---------------------------------------------------------------------------------------------------------
-]---------------------------------------------------------------------------------------------------------
-]------------------------------------------------------3/2-------2/1----0---------------------------------
-]---------------------------------------2/3------2/3--------0/3-----------3-0-----0-----------------------
-]---2/3-4/5--------2/3--4/5----2/3-4/5------4/5---------------------------------3-------------------------


-]---------------------------------------------------------------------------------------------------------
-]---------------------------------------------------------------------------------------------------------
-]---------------------------------------------------------------------------------------------------------
-]------------------------------------------------------3/2-------2/1----0---------------------------------
-]---------------------------------------2/3------2/3--------0/3-----------3-0-----0-----------------------
-]---2/3-4/5--------2/3--4/5----2/3-4/5------4/5---------------------------------3-------------------------
P P P P
-]--5----------------/---------------/-------------/---------------
-]----8--5-----------/---------------/-------------/---------------
-]---------7-5---5--7/---8--8--8--8--/---7--5--0---/---7--5--0-----
-]-------------6-----/---------------/----------7-7/-----------7-7-
-]-------------------/---------------/-------------/---------------
-]-------------------/---------------/-------------/---------------
ALGO MAS PESADITO MAS ROCK xD

IRON MAN de Black Sabbath
G---------------------------------
D---------------------------------
A-2-5--5-7-7--109-109-109-5-5-7-7-
E--------------------------------- (x7)

G---------------------------------
D---------------------------------
A-----5---------------------------
E-7-7---7-7-6-555-04567----------- (x3)

G---------------------------------
D---------------------------------
A-2-5--5-7-7--109-109-109-5-5-7-7-
E--------------------------------- (x4)

G---------------------------------------
D-------------------789------------789--
A-7---5-----567-789--------567-789------
E--------77-------------77-------------- (x2)


FLACA de Andres Calamaro (intro)
e------------------------------------------------------------------
B--3-----------4------------5-----------3-1---3-----------4--------
G---4-2-0-2-4----4-2-0-2-4----4-2-0-2-4-----4---4-2-0-2-4---4-2-0--
D------------------------------------------------------------------
A------------------------------------------------------------------
E------------------------------------------------------------------

SUNSHINE OF YOUR LOVE de Cream
1:
e-------------------------------------------------
B-------------------------------------------------
G-------------------------------------------------
D------12--12---10---12---------------------------
A------------------------12--11--10------b8-------
E------------------------------------10------10---
2:
e-------------------------------------------------
B-------------------------------------------------
G------12--12---10---12---------------------------
D------------------------12--11--10------b8-------
A------------------------------------10------10---
E-------------------------------------------------



INSPECTOR GADGET
1|------------------------------------------
2|---------------------------------------3-2
3|----------------------------------4-3-----
4|------0-2-4--0-3---2-0------0-2-4---------
5|--2-4------------4-----2-4----------------
6|------------------------------------------

SATISFACTION de los Rolling Stones


e-------------------------------------------------
B-------------------------------------------------
G-------------------------------------------------
D-------------------------------------------------
A-------------------------------------------------
E---2--2---2-4-5--555-4444------------------------

y asi se repite... (sirve cn cualquier cuerda)



Guns N' Roses - Sweet Child O' Mine
E|---------3--2------------3--2-------------------|
B|---3----------3----3----------3-----------------|
G|-----3-2--3----------3-2--3-------------------|
D|-0--------------0---------------0---------------|
A|--------------------------------------------------|
E|--------------------------------------------------|

Purple Haze
:------------------------------------------------------------------:
:--------------------------------------------------------8---------:
:---------------------------------------------------7--------------:
:---------8---------8---------8---------8----7/9--------------7b---:
:----7----7----7----7----7----7----7----7--------------------------:
:----6---------6---------6---------6-------------------------------:

:------------------------------------------------------------------:
:--------------------------------------8---------------------------:
:---------------------------------7--------------------------------:
:----5----0----------------7/9--------------7b----5----0-----------:
:--------------5----5/7-------------------------------------5------:
:------------------------------------------------------------------:

:------------------------------------------------------------------:
:------------------------------------------------------------------:
:------------------------------------------------------------------:
:---------------------5----7/9----9/7----7----5----0---------------:
:----5/7----5----7-------------------------------------------5----7:
:-------------------------------------------------------3----------:

:------------------------------------------------------------------:
:-------------------------------------------------------8----8----8:
:--------------------------------------7/9----9---------7----7----7:
:----5----7/9----9/7----7----5----0---------------------6----6----6:
:-------------------------------------------------------7----7----7:
:--------------------------------------------------0---------------:

:------------------------------------------------------------------:
:----8----8--------------------------------------------------------:
:----7----7--------------------------------------------------------:
:----6----6--------------------------------------------------------:
:----7----7----5----5----5----5----5/7----7----7----7----7---------:
:--------------3----3----3----3----3/5----5----5----5----5----0----:

:------------------------------------------------------------------:
:----8----8----8----8----8-----------------------------------------:
:----7----7----7----7----7-----------------------------------------:
:----6----6----6----6----6-----------------------------------------:
:----7----7----7----7----7----5----5----5----5----5/7----7----7----:
:-----------------------------3----3----3----3----3/5----5----5----:

:------------------------------------------------------------------:
:-------------------8----8----8----8----8--------------------------:
:-------------------7----7----7----7----7--------------------------:
:-------------------6----6----6----6----6--------------------------:
:----7----7---------7----7----7----7----7----5----5----5----5------:
:----5----5----0-----------------------------3----3----3----3------:

:-------------------------------------:
:-------------------------------------:
:-------------------------------------:
:-------------------------------------:
:----5/7----7----7----7----7-----:
:----3/5----5----5----5----5-----:

La cucaracha GENIAL


e--------1-5--------1-5--1-1-0-0-----------------------
B--1-1-1------1-1-1--------------3-3-1-----------------
G------------------------------------------------------
D------------------------------------------------------
A------------------------------------------------------
E------------------------------------------------------


e--------0-3--------0-3--8-10-8-6-5-3-1----------------
B--1-1-1------1-1-1------------------------------------
G------------------------------------------------------
D------------------------------------------------------
A------------------------------------------------------
E------------------------------------------------------


e------1-1-5-5-8-5--8-10-8-6-5-8-6-3-------------------
B--1-1-------------------------------------------------
G------------------------------------------------------
D------------------------------------------------------
A------------------------------------------------------
E------------------------------------------------------


e------0-0-3-3-6-3--8-10-8-6-5-3-1---------------------
B--1-1-------------------------------------------------
G------------------------------------------------------
D------------------------------------------------------
A------------------------------------------------------
E------------------------------------------------------

SIMPHONY OF DESTRUCTION Megadeth


e------------------------------------------------------------
b-----------------------------------------------------------
g-----------------------------------------------------------
d-----------------------------------------------------------
a-----------------3--2---2----3--2--2--------------3---2--2--
E-1----3----1-----1--0---0----1--0--0----1--3--1---1---0--0--



ONE (intro) Metallica LA MEJOR DE TODAS
e|---------------------------------------------------------------------------|
b|---------------------------------------------------------------------------|
g|------------------------------------------------------------------------0--|
D|----4-----0--(0)------4-----0--(0)-------4-----0--(0)------4-----0--(0)----|
A|-2-----2------------------------------2-----2------------------------------|
E|-------------------3-----3------------------------------3-----3------------|


e|--------------------------------------------------------------------|
b|--------------------------------------------------------------------|
g|--------------------------------------------------------------------|
D|----4------0--(0)------4-----0--(0)------4-----0--(0)---------------|
A|-2-----2------------0-----0--------------------------------2-----2--|
E|--------------------------------------3-----3-----------0-----2-----|
BUENO ESTO ES TODO GRACIAS POR VER EL POST


Tablaturas