Tablaturas faciles y muy buenas

Este es mi primer post...
Esperemos que tenga exito!!
Estas son algunas de mis tablaturas:



One - metalica

-----------------------------------------------------------------------------------------------------------------------
-----------------------------------------------------------------------------------------------------------------------
-------------------------------------------------------------------------------0---------------------------------------
--------4-------0----------4------------0-----------4-------------0-------------------------------------------------
----2-------2----------------------------------------------------------------------------------------------------------
----------------------3-----------3------------3------------3---------------------------------------------------------

--------------------------------------------------------------------------------------------------------------------------
--------------------------------------------------------------------------------------------------------------------------
--------------------------------------------------------------------------------------------------------------------------
--------4---------0---------4---------0-----------------------4---------0---------------------------------------------
----2--------2---------0---------0--------------------------------------------------2--------2-------2/4/2---------
-----------------------------------------------0-----3----3---------3----------0---------2------2---------------------
Nota: Donde dice 2/4/4 hay que deslizar el dedo del traste 2 al 4 y devolverlo al 2.


Enter Sadman - metalica

-----------------------------------------------------------------------------------------------------------------------------
-----------------------------------------------------------------------------------------------------------------------------
------------------------------------------------------------------------------------------------------------------------------
----------------------------5-------------------------------------------------------------------------------------------------
-----------------7------------------------------7----------------------------------------------------------------------------
-------0---------------------------6-----5-----------------------------------------------------------------------------------


Sunshine of your love - Cream

---------------------------------------------------------------------------------------------------------------------------------
---------------------------------------------------------------------------------------------------------------------------------
---------------------------------------------------------------------------------------------------------------------------------
--------12-------12------10------12----------------------------------------------------------------------------------------
------------------------------------------------12--------11---------10----------8------------------------------------------
------------------------------------------------------------------10---------10------------------------------------------------


Sweet child o mine - Guns N" Roses

---------------------------------15--------------14--------------------------------------------------15-----------14---------
-----------15----------------------------------------------------------------15--------------------------------------------------
-------------------14---12------------14-----------------14-----------------------14-----12-----------14----------14----
---12----------------------------------------------------------------12----------------------------------------------------------
-------------------------------------------------------------------------------------------------------------------------------------
-------------------------------------------------------------------------------------------------------------------------------------

---------------------------------15----------14---------------------------------------------15--------------14----------------
----------15--------------------------------------------------------15-----------------------------------------------------------
-----------------14---12-------------14-----------14--------------------14----12---------------14-------------14--------
----14-------------------------------------------------------14------------------------------------------------------------------
------------------------------------------------------------------------------------------------------------------------------------
------------------------------------------------------------------------------------------------------------------------------------

---------------------------15----------14---------------------------------------15---------------14---------------------------
--------15----------------------------------------------15-----------------------------------------------------------------------
-12-----------14--12----------14-----------12------------14-----12---------------14---------------14-------------------
-------------------------------------------------------------------------------------------------------------------------------------
-------------------------------------------------------------------------------------------------------------------------------------
-------------------------------------------------------------------------------------------------------------------------------------

----------------------------------15----------14------------------------------------------15--------------14-----------------
---------15----------------------------------------------------------15----------------------------------------------------------
-----------------14----12--------------14-----------14-------------------14---12------------14----------------14--------
--12----------------------------------------------------------12----------------------------------------------------------------
------------------------------------------------------------------------------------------------------------------------------------
------------------------------------------------------------------------------------------------------------------------------------

--12---------------------------12------------14-----------15----------14--------12--------------------------------------
----------------15---------------------------------------------------------------------------------15-------------------------
---------14----------14--------------14-----------14-----------14----------14---------14---------14------------------
---------------------------------------------------------------------------------------------------------------------------------
---------------------------------------------------------------------------------------------------------------------------------
---------------------------------------------------------------------------------------------------------------------------------


Smoke on the water - Deep Purple

---------------------------------------------------------------------------------------------------------------------------
---------------------------------------------------------------------------------------------------------------------------
----------------------------------------------------------------------------------------------------------------------------
-----------------------------------------------------------------------------------------------------------------------------
------0-----3----5-----0-----3------6----5----0----3----5----3----0-------------------------------------------------
------------------------------------------------------------------------------------------------------------------------------
Nota: Suena bn con cualquier cuerda


Los Simpsons - T.V.

--------0----2----5----3----0----------------------------------------------------------------------------------------------
----1-------------------------------1------------------------------------------0---2--2--2--3-----------------------------
---------------------------------------------2---------------0-------------0-------------------------------------------------
---------------------------------------------------4--4--4------4--4--4-----------------------------------------------------
---------------------------------------------------------------------------------------------------------------------------------
----------------------------------------------------------------------------------------------------------------------------------


Feliz Cumpleaños - Tradicional

------------------------------------------------------------------------------3--0-----------------1--1--0---------------------
---------------------------1----0----------------------3---1------------------------1--0---------------------1---3---1------
-----0---0---2---0-------------------0--0--2--0---------------0--0-----------------------2---------------------------------
------------------------------------------------------------------------------------------------------------------------------------
------------------------------------------------------------------------------------------------------------------------------------
------------------------------------------------------------------------------------------------------------------------------------


El Chavo Del Ocho - T.V.

-------------------------------------0----------------------------------------------------------------------------------------------
------------------------------------------3--1--0-------------------0---------------------------------------------------------------
---0-----------------0--------------------------------2--0-------------------------------------------------------------------------
---------2--2--2---------2--2-----------------------------------------------------------------------------------------------------
--------------------------------------------------------------------------------------------------------------------------------------
--------------------------------------------------------------------------------------------------------------------------------------

--------------------------------------0-------------------------------------------------------------------------------------------------
-------------------------------------------3--1--0------------------0--1-------------------------------------------------------------
---0-----------------0----------------------------------2----0-----------------------------------------------------------------------
--------2--2--2---------2---2--------------------------------------------------------------------------------------------------------
-----------------------------------------------------------------------------------------------------------------------------------------
-----------------------------------------------------------------------------------------------------------------------------------------


Ahora a Tocar!!!

Comentar no Cuesta NADA!!!

Tablaturas faciles y muy buenas

Los simpsons

Fuentes de Información - Tablaturas faciles y muy buenas

Dar puntos
433 Puntos
Votos: 77 - T!score: 6/10
  • 17 Seguidores
  • 77.650 Visitas
  • 99 Favoritos

33 comentarios - Tablaturas faciles y muy buenas

@destronadords Hace más de 4 años +4
gracias yo toco la guitarra y no me sale el traste te voy a seguir y lo pongo en favoritos
@paredes789 Hace más de 4 años +1
jejejeje buen post te felicito lastima que soy novato si no te dejaria puntos
@asisi Hace más de 4 años
Gracias, estoy empezando con la guitarra y me viene barbaro tu post. si tuviera puntos te los dejaria. agrego a favoritos.
Saludos

@DAJM93 Hace más de 4 años
gracias
@destronadords Hace más de 4 años
de nada
@rackomint Hace más de 4 años
hola... esta pichudisimo y si tuviera puntos te los dejaria.... asi q uds cabrones delen puntos a estemop por que el post esta #$$%$/
@a_n_d_r_e_s_ Hace más de 4 años
muy buen post
@soylomejor Hace más de 3 años +3
12345678
@DragonAge93 Hace más de 3 años
joya .. voy aprendiendo un poco jaaj
@emiitoo Hace más de 3 años
jejje +10
@luisitoo_wow Hace más de 3 años
muy buen post bro....=) +10....=)
@d11ego_uc Hace más de 3 años
wena gracias
@mabritoxxbkn Hace más de 3 años
esta bueno, me gusta te daria puntos pero no tengo
@raulalejandro1 Hace más de 3 años
por favor enviame completa la d smoke on the water! y recomiendo tu post!! la necesito!!
@julian1995 Hace más de 3 años +2
Muy buen post, Pero por favor por lo que mas quieras tabla noo!!!
@syncthesis Hace más de 3 años +1
EXCELENTE (y)
@chingon_01 Hace más de 3 años
hheee¡¡¡¡.......... el chavo muy buena¡¡¡
@yocriss7 Hace más de 3 años +1
te dejo 2+
@XeBaPaRaWoRe792 Hace más de 3 años
mmm me di cuenta q guitarra no es lo mio...no tengo paciencia!!! D:!
@escuchacumbiavillera Hace más de 3 años -2
me compre una bateria no era lo mio D: haora encontre mi instrumento
;
@sebastian11aguirre Hace más de 3 años -6
123456709
@razielwolff Hace más de 3 años +1
piola me salieron todas
@lospostnoseque Hace más de 3 años +1
muy bueno +10
@KaiilooS Hace más de 2 años
muy bueno.!
me re sirve a mi que recien empiezo
+10
@FileNotFound Hace más de 1 año +1
deberías poner "pedacitos de tablaturas"
@yeilow Hace más de 1 año
Muy bueno
@brunocrede Hace más de 1 año +1
+10
@MATYASTEVEZ Hace más de 11 meses
gracias
@ivanzepp Hace más de 10 meses
For the love of God :


||-----------------------|-------------------------------||---------------------|
||------------10--10/12--|--1715--12--8--10/12--15p10---||--1715--12--8-------|
||*--------7-------------|------------------------------*||---------------------|
||*---7/9----------------|------------------------------*||---------------------|
||-----------------------|-------------------------------||---------------------|
||-----------------------|-------------------------------||---------------------|

------------------------------------|--------------------|----------------------|
10/12--12--1210--10--7-------------|-----------10---10--|---15------15--12-----|
-------------------------9--7--7/9--|--------7-----------|----------------------|
------------------------------------|---7/9--------------|----------------------|
------------------------------------|--------------------|----------------------|
------------------------------------|--------------------|----------------------|
@Nefer_Pitou Hace más de 10 meses
buen post
@sstilllike Hace más de 7 meses