Este es mi primer post...
Esperemos que tenga exito!!
Estas son algunas de mis tablaturas:



One - metalica

-----------------------------------------------------------------------------------------------------------------------
-----------------------------------------------------------------------------------------------------------------------
-------------------------------------------------------------------------------0---------------------------------------
--------4-------0----------4------------0-----------4-------------0-------------------------------------------------
----2-------2----------------------------------------------------------------------------------------------------------
----------------------3-----------3------------3------------3---------------------------------------------------------

--------------------------------------------------------------------------------------------------------------------------
--------------------------------------------------------------------------------------------------------------------------
--------------------------------------------------------------------------------------------------------------------------
--------4---------0---------4---------0-----------------------4---------0---------------------------------------------
----2--------2---------0---------0--------------------------------------------------2--------2-------2/4/2---------
-----------------------------------------------0-----3----3---------3----------0---------2------2---------------------
Nota: Donde dice 2/4/4 hay que deslizar el dedo del traste 2 al 4 y devolverlo al 2.


Enter Sadman - metalica

-----------------------------------------------------------------------------------------------------------------------------
-----------------------------------------------------------------------------------------------------------------------------
------------------------------------------------------------------------------------------------------------------------------
----------------------------5-------------------------------------------------------------------------------------------------
-----------------7------------------------------7----------------------------------------------------------------------------
-------0---------------------------6-----5-----------------------------------------------------------------------------------


Sunshine of your love - Cream

---------------------------------------------------------------------------------------------------------------------------------
---------------------------------------------------------------------------------------------------------------------------------
---------------------------------------------------------------------------------------------------------------------------------
--------12-------12------10------12----------------------------------------------------------------------------------------
------------------------------------------------12--------11---------10----------8------------------------------------------
------------------------------------------------------------------10---------10------------------------------------------------


Sweet child o mine - Guns N" Roses

---------------------------------15--------------14--------------------------------------------------15-----------14---------
-----------15----------------------------------------------------------------15--------------------------------------------------
-------------------14---12------------14-----------------14-----------------------14-----12-----------14----------14----
---12----------------------------------------------------------------12----------------------------------------------------------
-------------------------------------------------------------------------------------------------------------------------------------
-------------------------------------------------------------------------------------------------------------------------------------

---------------------------------15----------14---------------------------------------------15--------------14----------------
----------15--------------------------------------------------------15-----------------------------------------------------------
-----------------14---12-------------14-----------14--------------------14----12---------------14-------------14--------
----14-------------------------------------------------------14------------------------------------------------------------------
------------------------------------------------------------------------------------------------------------------------------------
------------------------------------------------------------------------------------------------------------------------------------

---------------------------15----------14---------------------------------------15---------------14---------------------------
--------15----------------------------------------------15-----------------------------------------------------------------------
-12-----------14--12----------14-----------12------------14-----12---------------14---------------14-------------------
-------------------------------------------------------------------------------------------------------------------------------------
-------------------------------------------------------------------------------------------------------------------------------------
-------------------------------------------------------------------------------------------------------------------------------------

----------------------------------15----------14------------------------------------------15--------------14-----------------
---------15----------------------------------------------------------15----------------------------------------------------------
-----------------14----12--------------14-----------14-------------------14---12------------14----------------14--------
--12----------------------------------------------------------12----------------------------------------------------------------
------------------------------------------------------------------------------------------------------------------------------------
------------------------------------------------------------------------------------------------------------------------------------

--12---------------------------12------------14-----------15----------14--------12--------------------------------------
----------------15---------------------------------------------------------------------------------15-------------------------
---------14----------14--------------14-----------14-----------14----------14---------14---------14------------------
---------------------------------------------------------------------------------------------------------------------------------
---------------------------------------------------------------------------------------------------------------------------------
---------------------------------------------------------------------------------------------------------------------------------


Smoke on the water - Deep Purple

---------------------------------------------------------------------------------------------------------------------------
---------------------------------------------------------------------------------------------------------------------------
----------------------------------------------------------------------------------------------------------------------------
-----------------------------------------------------------------------------------------------------------------------------
------0-----3----5-----0-----3------6----5----0----3----5----3----0-------------------------------------------------
------------------------------------------------------------------------------------------------------------------------------
Nota: Suena bn con cualquier cuerda


Los Simpsons - T.V.

--------0----2----5----3----0----------------------------------------------------------------------------------------------
----1-------------------------------1------------------------------------------0---2--2--2--3-----------------------------
---------------------------------------------2---------------0-------------0-------------------------------------------------
---------------------------------------------------4--4--4------4--4--4-----------------------------------------------------
---------------------------------------------------------------------------------------------------------------------------------
----------------------------------------------------------------------------------------------------------------------------------


Feliz Cumpleaños - Tradicional

------------------------------------------------------------------------------3--0-----------------1--1--0---------------------
---------------------------1----0----------------------3---1------------------------1--0---------------------1---3---1------
-----0---0---2---0-------------------0--0--2--0---------------0--0-----------------------2---------------------------------
------------------------------------------------------------------------------------------------------------------------------------
------------------------------------------------------------------------------------------------------------------------------------
------------------------------------------------------------------------------------------------------------------------------------


El Chavo Del Ocho - T.V.

-------------------------------------0----------------------------------------------------------------------------------------------
------------------------------------------3--1--0-------------------0---------------------------------------------------------------
---0-----------------0--------------------------------2--0-------------------------------------------------------------------------
---------2--2--2---------2--2-----------------------------------------------------------------------------------------------------
--------------------------------------------------------------------------------------------------------------------------------------
--------------------------------------------------------------------------------------------------------------------------------------

--------------------------------------0-------------------------------------------------------------------------------------------------
-------------------------------------------3--1--0------------------0--1-------------------------------------------------------------
---0-----------------0----------------------------------2----0-----------------------------------------------------------------------
--------2--2--2---------2---2--------------------------------------------------------------------------------------------------------
-----------------------------------------------------------------------------------------------------------------------------------------
-----------------------------------------------------------------------------------------------------------------------------------------


Ahora a Tocar!!!

Comentar no Cuesta NADA!!!

Tablaturas faciles y muy buenas

Los simpsons