“Cumpleaños Feliz” en guitarra, para que se luzcan en las celebraciones con la familia y amigos.

El video y la información del tutorial, después del salto…

Cómo tocar cumpleaños feliz en guitarra

Nota: La afinación de la guitarra es estándar. En la tablatura se presentan 2 combinaciones para tocar la canción, pueden usar la que prefieran.

Implementos necesarios:

* Una guitarra de cualquier tipo, puede ser eléctrica, acústica o electroacústica.
* La tablatura,


CUMPLEAÑOS FELIZ

PRIMERA VERSIÓN (Afinación estándar)
E-----------------------------------------------------------------------
B-----------------------------------------------------------------------
G-----------------------------------------------------------------------
D-------------5-4-----------7-5------9-5-5-5-4-2-10-10-9-5-7-5---
A-----5-5-7-5-------5-5-7-5------5-5--------------------------------

E------------------------------------------------------------------------
E------------------------------------------------------------------------
B------------------------------------------------------------------------
G-----------------------------------------------------------------------
D-------------------------------------------------------------------- Y muchos mas… (tenemos seeed )
A-5-7-5-8------------------------------------------------------------ (El 8 lo dejan sonar, o pueden hacer un slide
E--------------------------------------------------------------------- del 7 al 8).

SEGUNDA VERSIÓN (Afinación estándar)
E--0--0--2--0--5--4--
B--------------------
G-------------------- Cumpleaños feliz…
D--------------------
A--------------------
E--------------------

E--0--0--2--0--7--5--
B--------------------
G-------------------- Te deseamos a ti…
D--------------------
A--------------------
E--------------------

E--0--0--9--5--4--4--2--
B-----------------------
G----------------------- Feliz cumpleaños (inserte nombre)
D-----------------------
A-----------------------
E-----------------------

E--10--10--9--5--7--5--
B----------------------
G---------------------- Que los cumplas feliz…
D----------------------
A----------------------
E----------------------

Y el resultado de la canción:



link: http://www.youtube.com/watch?v=mW22ni1AFJ4