Aprende a como leer y tocar tablaturas!!

¿Como leer Tablaruras?


La verdad leer tablaturas es muy cencillo aqui les dejo una introduccion para aprender a leer y tocar Tabs...

Las tablaturas para guitarra son como una partitura que muestra la posición de los dedos en la guitarra, pero que no da datos de tonos ni duración de las notas. Asi que para tocar una canción a traves de una tablatura, la debes haber escuchado antes para conocer el ritmo y sonido de la guitarra.

En primer lugar, nos interesa saber el nombre de las partes que componen el mastil de la guitarra:

TRASTES: En el mástil se encuentran los trastes, que son las divisiones en que se divide.

CUERDAS: La guitarra tiene 6 cuerdas de distinto grosor, la más fina que esta abajo, es la denominada 1ª cuerda, la siguiente es la 2ª, y así hasta la 6ª que es la más gruesa.

Mastil de la guitarra


Mi 1ra. ||---------|----------|----------|----------|---------|-
Si 2da. ||---------|----------|----------|----------|---------|-
Sol 3ra ||---------|----------|----------|----------|---------|-
Re 4ta. || --------|----------|----------|----------|---------|-
La 5ta. ||---------|----------|----------|----------|---------|-
Mi 6ta. ||---------|----------|----------|----------|---------|-
......___/1 Traste . 2 Traste . 3 Traste . 4 Traste . 5 Traste

La tablatura se compone de seis líneas horizontales que representan las seis cuerdas de la guitarra, la línea de arriba es la 1ª cuerda y la última línea es la 6ª:

e------------------------------primera cuerda
B-----------------------------segunda cuerda
G -----------------------------tercera cuerda
D ------------------------------cuarta cuerda
A ------------------------------quinta cuerda
E ------------------------------sexta cuerda


En estas líneas estaran unos números que muestran el traste que se tiene que pulsar:

e----1-------------------------
B------------------------------
G-------3----------------------
D----------5-------------------
A------------------------------
E------------------------------


Esto quiere decir que debes comenzar el punteo de guitarra pulsando la cuerda primera(e) en el traste 1, después sigue la cuerda tercera(G) en el traste 3, después sigues la cuerda cuarta(D) en el traste 5.
Si encuentras un 0 en la tablatura te esta indicando que la cuerda hay que tocarla sin pulsarla.


Cuando en la tablatura hay unos números sobre otros, los tienes que tocar al mismo tiempo y cada uno en su traste. Esto se llamaria acorde y se define como: dos o más notas sonando al mismo tiempo.


e--2--------------------------primera cuerda
B--3--------------------------segunda cuerda
G------------------------------tercera cuerda
D------------------------------cuarta cuerda
A------------------------------quinta cuerda
E------------------------------sexta cuerda


En la tablatura de arriba hay dos notas una encima de otra, sin dejar espacio. Esto indica que hay que tocarlas a la vez. La primera cuerda de la guitarra pisada en el traste 2 y la segunda cuerda pisada en el traste 3, presionas las dos cuerdas a la vez en sus trastes correspondientes y las tocas al mismo tiempo.

Aqui en las tablaturas como en las partituras aparecen simbolos...
Estos simbolos suelen estar escritos en inglés:


) = Bend

/ = Slide

~~ = Vibrato

h = Hammer on

p = Pulloff

PM = Palm mute

xx = Pick scrape (rasgar con la pua)

NH = Armonico natural (Natural armonic)

+ = Tremelo Pick

) = Unison Bend

| = Ghost Bend (Bend fantasma)

| = Ghost Bend and release (Bend fantasma y soltar)

* = Retroalimentacion descontrolada (Uncontrolled feedback)

BEND:
Se toca la primera nota y luego se estira la cuerda de la guitarra con el dedo que presiona el mástil hasta alcanzar un medio tono, tono completo o segun se indique.

E-|------------------|
B-|----5)------------|
G-|------------------|
D-|------------------|
A-|------------------|
E-|------------------|


SLIDE:
Se toca la nota primera nota y se corre el dedo hasta un trasto más arriba o más abajo segun sea el caso.La segunda nota no es tocada con la mano que hace el pick.

E-|------------------|
B-|----5/8-----------|
G-|------------------|
D-|------------------|
A-|------------------|
E-|------------------|


VIBRATO:
Se toca la nota y se hace vibrar con el vibrato o palanca de la guitarra, o bien haciendo un bend lo más rápido posible hacia arriba y hacia abajo.

E-|------------------|
B-|----5~-----------|
G-|------------------|
D-|------------------|
A-|------------------|
E-|------------------|


HAMMER-ON:
Se toca la primera nota y la segunda se hace sonar por medio de un tap (presionar el trasto de la guitarra y lograr un sonido sin necesidad de hacer un punteo) la segunda nota.

E-|------------------|
B-|----5h7----------|
G-|------------------|
D-|------------------|
A-|------------------|
E-|------------------|


PULL-OFF:
Se colocan los dos dedos en las notas que se van a tocar, se toca la primera nota y se deja de presionar esta para dejar sonar la nota de más abajo. La segunda nota no es tocada con la mano que hace el pick (punteo).

E-|------------------|
B-|----7p5-----------|
G-|------------------|
D-|------------------|
A-|------------------|
E-|------------------|


PALM MUTE:
La nota es ligeramente apagada con el filo de la mano que hace el pick mientras esta esta tocando las notas.

E-|------------------|
B-|------------------|
G-|------------------|
D-|------------------|
A-|------------------|
E-|--0--0--0--0-----|


HARMONICO NATURAL:
Se toca la cuerda ligeramente sin llegar a presionar con la mano que toca el mástil en el traste que se indique y despues pulsa en el trate la nota.

HARMONICO ARTIFICIAL (PINCH):
Despues de que la nota es tocada normalmente, se toca ligeramente con la punta de el dedo de la mano que hace el pick , sin llegar a apagar el sonido de la nota (una octava más arriba de la nota tocada originalmente) para producir el sonido de un harmónico. (pinch) A.H.

E-|----9-------------|
B-|------------------|
G-|------------------|
D-|------------------|
A-|------------------|
E-|------------------|


SLIDE PICK:
Es lo mismo que el slide solo que la segunda nota si es tocada

E-|------------------|
B-|----5/8-----------|
G-|------------------|
D-|------------------|
A-|------------------|
E-|------------------|


SLIDE LARGO:
Se hace el pick durante el slide hasta alcanzar la nota deseada>

E-|------------------|
B-|----/5------------|
G-|------------------|
D-|------------------|
A-|------------------|
E-|------------------|


SLIDE OFF:
Es el slide largo solo que hacia abajo.

E-|------------------|
B-|----5/----5------|
G-|------------------|
D-|------------------|
A-|------------------|
E-|------------------|


PICK SLIDE:
Con el filo de el pick (pua) se presiona sobre los trastos y se hace el slide.

E-|------------------|
B-|----x------------|
G-|------------------|
D-|------------------|
A-|------------------|
E-|------------------|


TREMOLO PICKING:
La nota es tocada con la mano que hace el pick hacia arriba y hacia abajo lo más rápido que sea posible.

E-|------------------|
B-|----5-------------|
G-|----/-------------|
D-|----/-------------|
A-|----/-------------|
E-|------------------


EJERCICIOS DE GUITARRA


ara aprender a tocar la guitarra correctamente hay que llegar a tener cierta soltura y velocidad en los dedos. Para ganar esta velocidad y fuerza en nuestros dedos, es importantísimo dedicar cierto tiempo cada dia a hacer ejercicios de digitación en nuestra guitarra.

A continuación veremos algunos ejercicios de guitarra para la mano izquierda. Practicar estos ejercicios unos 20 minutos al dia, nos servirá para obtener mayor velocidad y agilidad en los dedos de nuestra mano.

Como los ejercicios nos los encontraremos normalmente en tablatura es importante saber que nombraremos los dedos de la forma siguiente:

Dedo Índice = 1
Dedo Medio = 2
Dedo Anular = 3
Dedo Meñique = 4

En el siguiente video se explican muy bien los ejercicios básicos de digitación para la guitarra:



Para que nos quede claro como usar las tablaturas en adelante, las que ponemos a continuación serian las tablaturas de los primeros ejercicios que hemos visto en el video de arriba (veras que es fácil):

e-------------------------------------------------1-2-3-4-
B----------------------------------------1-2-3-4----------
G-------------------------------1-2-3-4-------------------
D-------------------1-2-3-4-------------------------------
A----------1-2-3-4----------------------------------------
E-1-2-3-4-------------------------------------------------

e-4-3-2-1-------------------------------------------------
B----------4-3-2-1----------------------------------------
G-------------------4-3-2-1-------------------------------
D----------------------------4-3-2-1----------------------
A-------------------------------------4-3-2-1-------------
E----------------------------------------------4-3-2-1----


A continuación otro video con mas ejercicios:



A continuacion les dejo mas ejercicios para que puedan practicar... :

Ejercicio de guitarra 1:

Este ejercicio puede hacerse de 2 maneras de digitación:

1-3 1-3 1-3 1-3 = Es decir, la primera nota con el índice y la segunda con el anular
2-4 2-4 2-4 2-4 =Algo mas difícil ya que seria la primera nota con el dedo medio y la segunda con el meñique.

La tablatura del ejercicio seria la siguiente:


e-------------------------------------5--7------
B-------------------------------5--7------------
G------------------------5--7-------------------
D------------------5--7-------------------------
A-----------5--7--------------------------------
E----5--7---------------------------------------

e-7---5------------------------------------------
B---------7---5----------------------------------
G-----------------7---5--------------------------
D-------------------------7---5------------------
A---------------------------------7---5----------
E----------------------------------------7---5---


¿Cómo se haría esta tablatura?
con la digitación 1-3 seria tan fácil como pulsar traste 5 con el índice y tocar + traste 7 con el anular y tocar. El ejercicio lo haríamos cambiando de cuerda de arriba abajo y en varias repeticiones.

Ejercicio de guitarra 2:

[El dedo Meñique es en el que menos fuerza tenemos y por tanto es el que mas nos costara que coja soltura.

El siguiente ejercicio nos ayudara con este dedo. Seria con la digitación 3-4 3-4 3-4, es decir, la primera nota de cada cuerda con dedo Anular y la siguiente con el dedo Meñique:/font]


e-------------------------------------6--7------
B-------------------------------6--7------------
G------------------------6--7-------------------
D------------------6--7-------------------------
A-----------6--7--------------------------------
E----6--7---------------------------------------

e-7---6------------------------------------------
B---------7---6----------------------------------
G-----------------7---6--------------------------
D-------------------------7---6------------------
A---------------------------------7---6----------
E----------------------------------------7---6---


Ejercicio de guitarra 3:

e--------------------------------------4--7-----
B-------------------------------4--7------------
G------------------------4--7-------------------
D------------------4--7-------------------------
A-----------4--7--------------------------------
E----4--7---------------------------------------


Fuente


Bueno gente espero que les haya servido de algo, si les gusto este post esperen a la 2ª parte les voy a dejar tabs de las mejores canciones de heavy,thrash,hard rock, etc...

13 comentarios - Aprende a como leer y tocar tablaturas!!

@montillaja +1
+10 loco algunas cosas no entendia y ademas voy a hacer los ejercicios ... buen post!
@nqn_bohemio
Esta buena la info.. pero creo que seria mejor que se enseñe a leer Partituras
@alejometal80
nqn_bohemio dijo:Esta buena la info.. pero creo que seria mejor que se enseñe a leer Partituras

Estoy totalmente de acuerdo
@kevinbrianjoell
Buen post da te felicito voy a tratar de practicar xD jeje +10
@Danichin
Puedes decirme como presionar mas de 4 trastes a la vez por favor(tengo 5 dedeos pero solo cuatro van a las cuerdas) ayudame
@666wasap
Danichin dijo:Puedes decirme como presionar mas de 4 trastes a la vez por favor(tengo 5 dedeos pero solo cuatro van a las cuerdas) ayudame


haciendo un acorde