Como Tocar La Guitarra

Como Tocar La Guitarra
aprender
Hola les dejo unas tablaturas faciles para que usen la guitarra
Introduccion

Tipos de guitarra
La guitarra clásica suele conocerse también como:

* “guitarra española”
* “guitarra acústica”
* “guitarra criolla”
* “viola”

Partes De La Guitarra
1. Cabeza y clavijeros, 2. Cejilla, 3. Clavija, 4. Trastes, 7. Mástil, 8. Cuello, 9. Caja o cuerpo, 12. Puente, 14. Fondo, 15. Tapa, 16. Aro, 17. Roseta y boca, 18. Cuerdas, 19. Selleta, 20. Diapasón.
guitarras

Afinar la guitarra

Ya tenes la guitarra ahora la tenes que afinar, que es afinar???, es poner cada cuerda de la guitarra en su nota musical debida según la afinación que hayas decidido. Porque tengo que afinarla?? Porque si no lo hacés, se escuchara horrible cuando trates de tocar una canción de algún grupo que te guste; aunque con la guitarra desafinada también se podría hacer música.

Como afinar la guitarra??

Se puede hacer de varias maneras, con un piano, etc. o la manera más sencilla es comprar un afinador, lo venden en cualquier tienda de música tiene un precio de $40 a $200, y solo tocas la cuerda de la guitarra y el aparato cambiara de color o te indicara de otra manera cuando este en la nota exacta.
Las notas de la guitarra son EADGBE, están de la sexta a la primera cuerda. Que significa EADGBE??? Es una terminación americana para indicar las notas musicales y traducidas serían:

E= Mi Sexta Cuerda
A=La Quinta Cuerda
D=Re Cuarta Cuerda
G=Sol Tercera Cuerda
B=Si Segunda Cuerda
E=Mi Primera Cuerda

Otra forma de afinar la guitarra es afinando una cuerda con un piano, y como hago esto???, simplemente tocas Mi en el piano, y tiene que sonar igual que la sexta cuerda, y las demás las afinas como sigue:

- 6ta Cuerda: Tiene que sonar como la 5 cuerda cuando presionas el 7mo traste.
- 5ta Cuerda: Tiene que sonar como la 6 cuerda cuando presionas el 5to traste.
- 4ta Cuerda: Tiene que sonar como la 5 cuerda cuando presionas el 5to traste.
- 3era Cuerda: Tiene que sonar como la 4 cuerda cuando presionas el 5to traste.
- 2da Cuerda: Tiene que sonar como la 3 cuerda cuando presionas el 4to traste.
- 1era Cuerda: Tiene que sonar como la 2 cuerda cuando presionas el 5to traste.


Para empezar a tocar las tablaturas representan las cuerdas de menor a mayor (la 1 es la mas aguda y la 6 es la mas grave)

1|-------------------------------------------
2|-------------------------------------------
3|-------------------------------------------
4|-------------------------------------------
5|-------------------------------------------
6|-------------------------------------------

Vamos con las tablaturas:

Smoke on the water - Deep purple (Es solo la intro y se toca con cualquier cuerda)

1|---------------------------------------------------------------------
2|---------------------------------------------------------------------
3|-0---3---5--0---3---6---5---0---3---5----3----0-------------
4|---------------------------------------------------------------------
5|---------------------------------------------------------------------
6|---------------------------------------------------------------------


Feliz cumpleaños o el payaso Plin plin

1|----------------------------------------------------------------------3---1----------------------1---1---0-------------
2|---------------------1---0----------------------3---1------------------------1---1---0---------------------1---3---1
3|---0---0---2---0------------0---0---2---0------------0--0------------------------------2---------------------------
4|---------------------------------------------------------------------------------------------------------------------------
5|---------------------------------------------------------------------------------------------------------------------------
6|---------------------------------------------------------------------------------------------------------------------------


Mercedita (Para principiantes avanzados)

1|----------0---5---3---1---3---1---3---1---3---5---1---0---1---0---1--0---1---3---0-------0------0------0---1-----------
2|------1-------------------------------------------------------------------------------------------3------3------3------------3----1
3|-2-------------------------------------------------------------------------------------------------------------------------------------
4|----------------------------------------------------------------------------------------------------------------------------------------
5|----------------------------------------------------------------------------------------------------------------------------------------
6|----------------------------------------------------------------------------------------------------------------------------------------

Comenten Y Si Pueden Dejen Puntos Porfa Que Soy Novato!!!!

11 comentarios - Como Tocar La Guitarra

@kapitoos
Segui asi me gusto tu post, pero si me podes enseñar como tocar una cancion conocida y completa te lo agradeceria.
@adolfitosalani +2
me gusto el esfuerzo tuyo, +5 y segui asi capo
@Emalac
gran post, esta bueno para los que empiezan en guitarra.
aca les dejo el link de mi post, tiene una cantidad de tablaturas