Punteos basicos para principiantes

Hola taringueros este post lo hago para que puedan aprender a tocar algunas cosas basicas de guitarra, los punteos, suenan bastante bueno y son faciles aqui les dejo un par



Datos!

*Cuando aparece un 0 en una cuerda se dice que es al aire, es decir, "no hay que poner el dedo en ningun traste".
*Les dejo pedacitos de canciones, asi se copen y sigan tocando (de igual manera abajo esta el link con la cancion completa )
*NO QUIERAN TOCAR CANCIONES PARA EXPERTOS, siendo principiantes, les va a doler la cabeza y MUCHO, como a Hendrix
*NO dejes que la guitarra te gane, al principio cuesta despues te va a encantar


Primero unos basicos, como el cumpleaño feliz:


E||-----------------|-------1----0---|-----------------|-------3----1--|
B||--1----1----3--|--1-------------|--1----1----3--|--1-------------|
G||-----------------|-----------------|-----------------|-----------------|
D||-----------------|-----------------|-----------------|-----------------|
A||-----------------|-----------------|-----------------|-----------------|
E||-----------------|-----------------|-----------------|-----------------|

http://lacuerda.net/tabs/c/canciones/cumpleanios_feliz.shtml

musica

o Smoke on the water:

||-----------------|---------------|----------------|------------------||
||o----------------|---------------|----------------|----------------o||
||--0---3---5----0-|---3---6-5-----|-0---3---5----3-|---0----||
||--0---3---5----0-|---3---6-5-----|-0---3---5----3-|---0----||
||o----------------|---------------|----------------|-----------------||
||-----------------|---------------|----------------|------------------||

Link: http://www.tusacordes.com/secciones/ver_tema.php?id=19623

Tablaturas

Otros mas complicados (no dejan de ser sencillos)

Para elisa - Beethoven

|---0-------0-------0---------------|-------------------------------------|
|-------4-------4-------0---3---1--|-----------------------0------------|
|-----------------------------------2-|-------------------2-----------1---|
|--------------------------------------|---2-----------2-----------2------|
|-----------------------------------0-|-------0---3-----------------------|
|--------------------------------------|------------------------0-----------|

Link: http://www.tusacordes.com/secciones/ver_tema.php?id=19576

Leer

And I love her - The Beatles (escuchenla )

Intro:
F#m E6 F#m
-|-------------------------------------------------------------
-|-------------------------------------------------------------
-|-------------------------------------------------------------
-|-------------------------------------------------------------
-|------7--6--4---------7--6--4---------7--6--4---------
-|---7---------------7---------------7-----------------------

Partituras

Seven Nation Army - White Stripes

-|-------------------------------------------------------------
-|-------------------------------------------------------------
-|-------------------------------------------------------------
-|-------------------------------------------------------------
-|--------0-0--3--0-----------------------------------------
-|------------------3----1----0------------------------------

aprender

Sigue asi gran parte de la cancion; la escribi yo jeje, pero les dejo un link alternativo: http://www.tusacordes.com/secciones/ver_tema.php?id=19314

Another one bites the dust - Queen

NOTA: Es de bajo la tablatura, pero es bastante sencilla y se puede tocar con guitarra (el intro)

------------------------------------
------------------------------------
------------------------------------
-5-3-0-0-0-(0-0-0-3-0-5)---

principiantes

Link: http://www.tusacordes.com/secciones/ver_tema.php?id=27107

Punteos

Day Tripper - The Beatles

-------------------------------
-------------------------------
-------------------------------
--2----------4----2--------- x 4
--2------5---2----2--5-----
--0--3-4--------------------

http://www.tusacordes.com/secciones/ver_tema.php?id=17279

Punteos basicos para principiantes

Tan Solo - Los piojos

INTRO:
1.---------------------------------------------------------------------------------
2.---------------------------------------------------------------------------------
3.---------------------------------------------------------------------------------
4.---------------------------------------------------------------------------------
5.--10--10---------10-9-8----9-------9-8-7----8-------8-7-6---6x3--7-
6.----------10-10---------------10-10------------10-10---------------------

http://www.tusacordes.com/secciones/ver_tema.php?id=12899

musica

In The End - Linkin Park

e----------------------------------------------------
b----------------------------------------------------
g----3--3------------------------------------------ x 4
d-1--------4--3--3--3--3--4--1-----------------
a-----------------------------------------------------
e----------------------------------------------------

Tablaturas

Aca murio el post gente, Saludosssssssss

Leer

Partituras